The Beautiful Mistake - Circular Parade Chords & Tabs

 

Circular Parade Chords & Tabs

The Beautiful Mistake Chords & Tabs

Version: 1 Type: Tab 0 ratings
1 star 2 stars 3 stars 4 stars 5 stars
comments

Circular Parade Tab

   
-------------------------------------------------------------------------------
			     Circular Parade - The Beautiful Mistake
-------------------------------------------------------------------------------

there are few songs in the punk or especially emo genre that I can call a masterpiece.
this is one of them.  this song is beautiful and it's about time someone friggin tabbed it.
So I've tabbed it, put lots of work into it and its fairly accurate, use the right pedals at the 
right time and you'll be pleasantly surprised at how good it sounds.

you'll have to listen to the song a few times to get the hang of the rhythm

Tabbed by:powerchord   [jon pinkus]
Tuning: drop D

guitar 1  : I'm not spelling writing out a  million power chords.
  there's no way you're that incompetent.
*
e|---------------------------------------------------------------------------|
B|---------------------------------------------------------------------------|
G|------3---3----<--this is the chord so just repeat it--5-------------------|
D|------3---3--------------------------------------------3-<-move up to this-|
A|------1---1--------------------------------------------3-------------------|
D|---------------------------------------------------------------------------|
    guitar 2 (use a chorus pedal and it will sound exactly the same ( fairly high depth)
e|-------------------------------------------------------------------8-------|
B|----6--6--6---5---5--5-5-5- 6---6--6--5--5--5---5/8--8--8---6--5/6---------|
G|-----5--5--5---5---5--5-5-5--5---5--5--5--5--5------5--5--5---5------------|
D|---------------------------------------------------------------------------|
A|---------------------------------------------------------------------------|
D|---------------------------------------------------------------------------|

e|--------------------------8------------------------------------------------|
B|------8---8--8---6---5/6---------------------------------------------------|*
G|----5---5--5---5---5-------------------------------------------------------| x 2
D|---------------------------------------------------------------------------|
A|---------------------------------------------------------------------------|
D|---------------------------------------------------------------------------|

e|---------------------------------------------------------------------------|
B|---------------------------------------------------------------------------|
G|---------------------------------------------------------------------------|
D|---------------------------------------------------------------------------|
A|---------------------------------------------------------------------------|
D|---------------------------------------------------------------------------|

*
e|---5/13---13--12--------15-----12----13---12---13---13-12----10---12h13h12-|
B|-------10------------10-----10----10---10---10----10------10---10----------|
G|---------------------------------------------------------------------------|
D|---------------------------------------------------------------------------|
A|---------------------------------------------------------------------------|
D|---------------------------------------------------------------------------|

e|----------------------13--------------13-------------13-----------13-------|
B|--13---------13----13---13----13----13---13----13--13--13--13--13----13----|*
G|-----12---10----10---------------------------10--10------------------------| x 2  
D|---------------------------------------------------------------------------|
A|---------------------------------------------------------------------------|
D|---------------------------------------------------------------------------|


Part two: this part is two hard to decipher so I'm sorry it's done not as well

  Guitar one (dist.)

[ Tab from: http://www.guitartabs.cc/tabs/t/the_beautiful_mistake/circular_parade_tab.html ]
e|---------------------------------------------------------------------------|
B|---------------------------------------------------------------------------|
G|---10----9----10-----9----12---14--17----15-14-15------10------------------|
D|------x6---x10---x6-------------------x16---------x16-----x8---------------|
A|---8-----7----8------7----10---12--15----13-12---13------8-------------------|
D|---------------------------------------------------------------------------|

It sounds like theres a third guitar playing this so go nuts if you want:
e|---------------------------------------------------------------------------|
B|----1---3------------------------------------------------------------------|
G|----3---5------------------------------------------------------------------|
D|----3---5------------------------------------------------------------------|
A|---------------------------------------------------------------------------|
D|---------------------------------------------------------------------------|


guitar two 
e|----------13---------------------------------------------------------------|
B|----13-13------------------------------------------------------------------|
G|--10----------keep repeating-----------------------------------------------|
D|---------------------------------------------------------------------------|
A|---------------------------------------------------------------------------|
D|---------------------------------------------------------------------------|


guitar one ALONE (chorus pedal):  					 (here dist.) 
									|
								       \ /
e|---------------------------------------------------------------------------|
B|------------5-----------------------0----0----------------2----2-----------|
G|----3-3-3-3---3--3--3--3---3-3--3-3---3-3--3-3-3---3-3--33--33--333--5-----|
D|--5--5-5-------5--5---5--1-----1-----------------0----0--------------5-----|
A|---------------------------------------------------------------------3-----|
D|---------------------------------------------------------------------------|



guitar two ALONE:

e|---------------------------------------------------------------------------|
B|-----------13-------------13-13-13-----------------------------------------|
G|-7-9-10-------10---11-12---------------------------------------------------|  
D|-----------11----x4-------11-11-11-----------------------------------------|
A|-5-7-8--------8----13-10---------------------------------------------------|
D|---------------------------------------------------------------------------|


guitar two ALONE:

e|---------------------------------------------------------------------------|
B|-----------13--------------------------------------------------------------|
G|-7-9-10-------10---11-12-14-14-14------------------------------------------|  x 2
D|-----------11----x4--------------------------------------------------------|
A|-5-7-8--------8----13-10-12-12-12------------------------------------------|
D|---------------------------------------------------------------------------|



most of the rest of the song is made up of this stuff

except the end part :
e|---------------------------------------------------------------------------|
B|-----------------------------------33-33-33-33-33---5----------------------|
G|-----------------------------------33-33-33-33-33---5-x16------------------|x2
D|-33-33-33-33-3/5--00-00-00-00-00---11-11-11-11-11---3----------------------|
A|-33-33-33-33-3/5--00-00-00-00-00-------------------------------------------|
D|-33-33-33-33-3/5--00-00-00-00-00-------------------------------------------|

e|---------------------------------------------------------------------------|
B|---------------------------------------------------------------------------|
G|--2------------------------------------------------------------------------|
D|--3------------------------------------------------------------------------|
A|--1------------------------------------------------------------------------|
E|---------------------------------------------------------------------------|


YOU'RE WELCOME YA INGRETFAL INGRETS!!!
-jon pinkus

| /  slide up
| \  slide down
| h  hammer-on
| p  pull-off
| ~  vibrato
| +  harmonic
| x  Mute note
===============================================================================
Comments