The Band - Weight Chords & Tabs

 

Weight Chords & Tabs

The Band Chords & Tabs

Version: 2 Type: Tab 0 ratings
1 star 2 stars 3 stars 4 stars 5 stars
comments

Weight Tab

song:The Weight
Album: Music From Big Pink
Artist:The band

I noticed an easier way to play the opening, here it is:

Opening
[ Tab from: http://www.guitartabs.cc/tabs/t/the_band/weight_tab_ver_2.html ]
E------------------5----------------------------------------|
B-------5-----5h7-------5h7--5------------------------------|
G--4h6---------------------------4h6--6---------------------|
D-------------------------------------------7^9--9--7-------|
A-----------------------------------------------------------|
E-----------------------------------------------------------|

E---------------------0-------------------------------------|
B---------------------2-------------------------------------|
G---------------------2-------------------------------------|
D---------4--7--4-----2-------------------------------------|
A----6^7--------------0-------------------------------------|
E-----------------------------------------------------------|
Comments