The Ataris - Your Boyfriend Sucks Chords & Tabs

 

Your Boyfriend Sucks Chords & Tabs

The Ataris Chords & Tabs

Version: 1 Type: Tab 0 ratings
1 star 2 stars 3 stars 4 stars 5 stars
comments

Your Boyfriend Sucks Tab

   
Verse#1
e----------------------------------------------------
B----------------------4-5-4-------------------------
G----------------------6--------------4--------------
D-2--------------------6--------------4--------------
A-2--------------------4--------------2--------------
E-0--------------------------------------------------

 E5                   C#5            B5
 You're better off without him, don't call him, he's
e---------------------------------------------------
B--------------------------------------------4-5-4--
G--------------------------------------------6------
D-4---6---7------------2---------------------6------
A-4---6---7------------2---------------------4------
E-2---4---5------------0----------------------------

 F#5 G#5 A5           E5                    C#5
 braking your heart!  He's hanging with your best  
e---------------------------------------------------
B---------------------------------------------------
G---------------------4-----------------------------
D---------------------4-------------------4---6---7-
A---------------------2-------------------4---6---7-
E-----------------------------------------2---4---5-

                      B5                  F#5 G#5 A5
 friend, and you're waiting there, it's tearing you 
e---------------------------------------------------
B-------------------------4-5-4---------------------
G-------------------------6---------------4---------
D------------2------------6---------------4---------
A------------2------------4---------------2---------
E------------0--------------------------------------
[ Tab from: http://www.guitartabs.cc/tabs/t/the_ataris/your_boyfriend_sucks_tab.html ]
             E5           C#5             B5 
 apart! He lied to you a thousand times, when I was 
e---------------------------------------------------
B---------------------------------------------------
G---------------------------------------------------
D-----------4---6---7--------4----------------------
A-----------4---6---7--------4----------------------
E-----------2---4---5--------2----------------------

            F#5  G#5  A5        F#5
 there, he kept you waiting!    And I'm still here, 
e---------------------------------------------------
B---------------------------------------------------
G---------------------------------------------------
D-6---------------7-9-7-6-4---9-7-6-4(lead onguitar2
A-6---------------7---------------------------------
E-4---------------5---------------------------------

  G#5              A5
    watiing there,         to catch you if you fall! 
e---------------------------------------------------
B---------------------------------------------------
G----------------------------------4----------------
D-4--------------6------------5----5----------------
A-4--------------6------------5----5----------------
E-2--------------4------------7----7----------------

 F#5            G#5          B5   B
 I don't know why I care so much,   when I shouldn't
e---------------------------------------------------
B---------------------------------------------------
G-------------13---8---9-8---7-13-9-----------------
D--------------X---X---X-X---X--X-X---(repeat)------
A-------------11---6---7-6---9-11-7-----------------
E---------------------------------------------------

 care at all!    (repeat verse and chorus part)

(ending)
e-------------------9--7--12--9---------------------
B---------------------------------------------------
G---------------------------------------------------
D-2-------------------------------------------------
A-2-(let ring out)----------------------------------
E-0-------------------------------------------------

^=half bend
e---------------------------------------------------
B---------------------------------------------------
G------6-6-6---4-4--6---2---------------------------
D-4^---6-6-6---4-4--6---2--(play this 8x)-----------
A------4-4-4---2-2--4---0---------------------------
E---------------------------------------------------
Comments