The Ataris - San Dimas Highscool Football Rules Chords & Tabs

 

San Dimas Highscool Football Rules Chords & Tabs

The Ataris Chords & Tabs

Version: 1 Type: Tab 0 ratings
1 star 2 stars 3 stars 4 stars 5 stars
comments

San Dimas Highscool Football Rules Tab

*VERSE*
    
          |       |       |       |       |       |       |        |
E |-0-0-----0-0-----1-1-----2-2-----0-0-----0-0-----0-0-----2-2----|
B |-1-0-0---1-0-0---1-1-1---2-2-2---1-0-0---1-0-0---1-0-0---2-2-2--|
G |-0-------0-------2---2---0---0---0-------0-------2---2---0---0--|
D |-2-------0-------3-------0-------2-------0-------2-------0------|
A |-3-------2-------3-------2-------3-------2-------0-------2------|
E |-----------------1-------3-------------------------------3------|



    *CHORUS*  (Not too sure about strumming timing, listen to the song for a better sense of timing)
[ Tab from: http://www.guitartabs.cc/tabs/t/the_ataris/san_dimas_highscool_football_rules_tab.html ]
             |          |          |           |        
E |-0-0--0-0---1-1--1-1---2-2--2-2---2-2--2-2--|
B |-1-1--1-1---1-1--1-1---2-2--2-2---2-2--2-2--|
G |-2-2--2-2---2-2--2-2---0-0--0-0---0-0--0-0--|
D |-2-2--2-2---3-3--3-3---2-2--2-2---0-0--0-0--|
A |-0-0--0-0---3-3--3-3---3-3--3-3---2-2--2-2--|
E |------------1-1--1-1--------------3-3--3-3--|



     *POST-CHORUS*    (Again, not too sure about strumming timing, listen to the song for a better sense of timing)

             |          |   |   |   |   |          |           |
E |-1-1--1-1---2-2--2-2---0---0---0---0---1-1--1-1---1-1--1-1--|
B |-1-1--1-1---2-2--2-2---1---1---1---1---1-1--1-1---1-1--1-1--|
G |-2-2--2-2---0-0--0-0---0---0---2---0---2-2--2-2---0-0--0-0--|
D |-3-3--3-3---0-0--0-0---2---0---2---0---3-3--3-3---0-0--0-0--|
A |-3-3--3-3---2-2--2-2---3---2---0---2---3-3--3-3---2-2--2-2--|
E |-1-1--1-1---3-3--3-3---------------3---1-1--1-1---3-3--3-3--|



     *ORDER*

Verse (2x) (Distortion)
Chorus (2x) (Distortion)
Post-chorus (1x) (Distortion)
Verse (2x) (Distortion)
Chorus (2x) (Distortion)
Post-chorus (1x) (Distortion)
Verse (First half) (NO Distortion)
Verse (Other half) (Distortion)
Verse (2x) (Distortion)
Comments