The Ataris - Boys Of Summer Chords & Tabs

 

Boys Of Summer Chords & Tabs

The Ataris Chords & Tabs

Version: 1 Type: Tab 2 ratings
1 star 2 stars 3 stars 4 stars 5 stars
comments

Boys Of Summer Tab

                                Boys of summer 

--The Ataris
--Tabbed By Andrew Peron
--Tuning: Normal                                 



                                                                                
E||-------------------|------------------|------------------|------------------|
B||-------------------|------------------|------------------|------------------|
G||--8----------------|------------------|------------------|------------------|
D||--8----------------|------------------|------------------|------------------|
A||--6----------------|------------------|------------------|------------------|
E||-------------------|------------------|------------------|------------------|


                                                                              
-------------------|------------------|------------------|-------------------|
-------------------|------------------|------------------|-------------------|
--8----------------|------------------|------------------|--------------8/---|
--8----------------|------------------|------------------|--------------8/---|
--6----------------|------------------|------------------|--------------6/---|
-------------------|------------------|------------------|-------------------|


                                                                              
-------------------|------------------|------------------|-------------------|
-------------------|------------------|------------------|-------------------|
--4----------------|------------------|------------------|--------------4/---|
--4----------------|------------------|------------------|--------------4/---|
--2----------------|------------------|------------------|--------------2/---|
-------------------|------------------|------------------|-------------------|


                                                                              
-------------------|------------------|------------------|-------------------|
-------------------|------------------|------------------|-------------------|
--6----------------|------------------|------------------|--------------6/---|
--6----------------|------------------|------------------|--------------6/---|
--4----------------|------------------|------------------|--------------4/---|
-------------------|------------------|------------------|-------------------|


                                                                             
-------------------|------------------|------------------|------------------|
-------------------|------------------|------------------|------------------|
--4----------------|------------------|------------------|------------------|
--4----------------|------------------|------------------|------------------|
--2----------------|------------------|------------------|------------------|
-------------------|------------------|------------------|------------------|


                                                                        
-----------------------|-----------------------|-----------------------|
-----------------------|-----------------------|-----------------------|
--8----8--8----8--8----|--8----8--8----8--8----|--8----8--8----8--8----|
--8----8--8----8--8----|--8----8--8----8--8----|--8----8--8----8--8----|
--6----6--6----6--6----|--6----6--6----6--6----|--6----6--6----6--6----|
-----------------------|-----------------------|-----------------------|


                                                                        
-----------------------|-----------------------|-----------------------|
-----------------------|-----------------------|-----------------------|
--8----8--8----8--8/---|--4----4--4----4--4----|--4----4--4----4--4----|
--8----8--8----8--8/---|--4----4--4----4--4----|--4----4--4----4--4----|
--6----6--6----6--6/---|--2----2--2----2--2----|--2----2--2----2--2----|
-----------------------|-----------------------|-----------------------|


                                                                        
-----------------------|-----------------------|-----------------------|
-----------------------|-----------------------|-----------------------|
--4----4--4----4--4----|--4----4--4----4--4/---|--6----6--6----6--6----|
--4----4--4----4--4----|--4----4--4----4--4/---|--6----6--6----6--6----|
--2----2--2----2--2----|--2----2--2----2--2/---|--4----4--4----4--4----|
-----------------------|-----------------------|-----------------------|


                                                                        
-----------------------|-----------------------|-----------------------|
-----------------------|-----------------------|-----------------------|
--6----6--6----6--6----|--6----6--6----6--6----|--6----6--6----6--6/---|
--6----6--6----6--6----|--6----6--6----6--6----|--6----6--6----6--6/---|
--4----4--4----4--4----|--4----4--4----4--4----|--4----4--4----4--4/---|
-----------------------|-----------------------|-----------------------|


                                                                        
-----------------------|-----------------------|-----------------------|
-----------------------|-----------------------|-----------------------|
--4----4--4----4--4----|--4----4--4----4--4----|--4----4--4----4--4----|
--4----4--4----4--4----|--4----4--4----4--4----|--4----4--4----4--4----|
--2----2--2----2--2----|--2----2--2----2--2----|--2----2--2----2--2----|
-----------------------|-----------------------|-----------------------|


                                                                        
-----------------------|-----------------------|-----------------------|
-----------------------|-----------------------|-----------------------|
--4----4--4----4--4/---|-----------------------|-----------------------|
--4----4--4----4--4/---|--4----4--4----4--4----|--4----4--4----4--4----|
--2----2--2----2--2/---|--4----4--4----4--4----|--4----4--4----4--4----|
-----------------------|--2----2--2----2--2----|--2----2--2----2--2----|


                                                                        
-----------------------|-----------------------|-----------------------|
-----------------------|-----------------------|-----------------------|
--6----6--6----6--6----|--6----6--6----6--6----|--6----6--6----6--6----|
--6----6--6----6--6----|--6----6--6----6--6----|--6----6--6----6--6----|
--4----4--4----4--4----|--4----4--4----4--4----|--4----4--4----4--4----|
-----------------------|-----------------------|-----------------------|


                                                                        
-----------------------|-----------------------|-----------------------|
-----------------------|-----------------------|-----------------------|
--6----6--6----6--6/---|--4----4--4----4--4----|--4----4--4----4--4----|
--6----6--6----6--6/---|--4----4--4----4--4----|--4----4--4----4--4----|
--4----4--4----4--4/---|--2----2--2----2--2----|--2----2--2----2--2----|
-----------------------|-----------------------|-----------------------|


                                                                        
-----------------------|-----------------------|-----------------------|
-----------------------|-----------------------|-----------------------|
-----------------------|-----------------------|--6----6--6----6--6----|
--4----4--4----4--4----|--4----4--4----4--4----|--6----6--6----6--6----|
--4----4--4----4--4----|--4----4--4----4--4----|--4----4--4----4--4----|
--2----2--2----2--2----|--2----2--2----2--2----|-----------------------|


                                                                        
-----------------------|-----------------------|-----------------------|
-----------------------|-----------------------|-----------------------|
--6----6--6----6--6----|--6----6--6----6--6----|--6----6--6----6--6/---|
--6----6--6----6--6----|--6----6--6----6--6----|--6----6--6----6--6/---|
--4----4--4----4--4----|--4----4--4----4--4----|--4----4--4----4--4/---|
-----------------------|-----------------------|-----------------------|


                                                                        
-----------------------|-----------------------|-----------------------|
-----------------------|-----------------------|-----------------------|
--4----4--4----4--4----|--4----4--4----4--4----|--8----8--8----8--8----|
--4----4--4----4--4----|--4----4--4----4--4----|--8----8--8----8--8----|
--2----2--2----2--2----|--2----2--2----2--2----|--6----6--6----6--6----|
-----------------------|-----------------------|-----------------------|


                                                                        
-----------------------|-----------------------|-----------------------|
-----------------------|-----------------------|-----------------------|
--8----8--8----8--8----|--8----8--8----8--8----|--8----8--8----8--8/---|
--8----8--8----8--8----|--8----8--8----8--8----|--8----8--8----8--8/---|
--6----6--6----6--6----|--6----6--6----6--6----|--6----6--6----6--6/---|
-----------------------|-----------------------|-----------------------|


                                                                        
-----------------------|-----------------------|-----------------------|
-----------------------|-----------------------|-----------------------|
--4----4--4----4--4----|--4----4--4----4--4----|--4----4--4----4--4----|
--4----4--4----4--4----|--4----4--4----4--4----|--4----4--4----4--4----|
--2----2--2----2--2----|--2----2--2----2--2----|--2----2--2----2--2----|
-----------------------|-----------------------|-----------------------|


                                                                        
-----------------------|-----------------------|-----------------------|
-----------------------|-----------------------|-----------------------|
--4----4--4----4--4/---|--6----6--6----6--6----|--6----6--6----6--6----|
--4----4--4----4--4/---|--6----6--6----6--6----|--6----6--6----6--6----|
--2----2--2----2--2/---|--4----4--4----4--4----|--4----4--4----4--4----|
-----------------------|-----------------------|-----------------------|


                                                                        
-----------------------|-----------------------|-----------------------|
-----------------------|-----------------------|-----------------------|
--6----6--6----6--6----|--6----6--6----6--6/---|--4----4--4----4--4----|
--6----6--6----6--6----|--6----6--6----6--6/---|--4----4--4----4--4----|
--4----4--4----4--4----|--4----4--4----4--4/---|--2----2--2----2--2----|
-----------------------|-----------------------|-----------------------|


                                                                        
-----------------------|-----------------------|-----------------------|
-----------------------|-----------------------|-----------------------|
--4----4--4----4--4----|--4----4--4----4--4----|--4----4--4----4--4/---|
--4----4--4----4--4----|--4----4--4----4--4----|--4----4--4----4--4/---|
--2----2--2----2--2----|--2----2--2----2--2----|--2----2--2----2--2/---|
-----------------------|-----------------------|-----------------------|


                                                                              
-------------------|------------------|------------------|-------------------|
-------------------|------------------|------------------|-------------------|
--8----------------|------------------|------------------|--------------8/---|
--8----------------|------------------|------------------|--------------8/---|
--6----------------|------------------|------------------|--------------6/---|
-------------------|------------------|------------------|-------------------|


                                                                              
-------------------|------------------|------------------|-------------------|
-------------------|------------------|------------------|-------------------|
--4----------------|------------------|------------------|--------------4/---|
--4----------------|------------------|------------------|--------------4/---|
--2----------------|------------------|------------------|--------------2/---|
-------------------|------------------|------------------|-------------------|


                                                                              
-------------------|------------------|------------------|-------------------|
-------------------|------------------|------------------|-------------------|
--6----------------|------------------|------------------|--------------6/---|
--6----------------|------------------|------------------|--------------6/---|
--4----------------|------------------|------------------|--------------4/---|
-------------------|------------------|------------------|-------------------|


                                                                              
-------------------|------------------|------------------|-------------------|
-------------------|------------------|------------------|-------------------|
--4----------------|------------------|------------------|--------------4/---|
--4----------------|------------------|------------------|--------------4/---|
--2----------------|------------------|------------------|--------------2/---|
-------------------|------------------|------------------|-------------------|


                                                                        
-----------------------|-----------------------|-----------------------|
-----------------------|-----------------------|-----------------------|
-----------------------|-----------------------|--6----6--6----6--6----|
--4----4--4----4--4----|--4----4--4----4--4----|--6----6--6----6--6----|
--4----4--4----4--4----|--4----4--4----4--4----|--4----4--4----4--4----|
--2----2--2----2--2----|--2----2--2----2--2----|-----------------------|


                                                                        
-----------------------|-----------------------|-----------------------|
-----------------------|-----------------------|-----------------------|
--6----6--6----6--6----|--6----6--6----6--6----|--6----6--6----6--6/---|
--6----6--6----6--6----|--6----6--6----6--6----|--6----6--6----6--6/---|
--4----4--4----4--4----|--4----4--4----4--4----|--4----4--4----4--4/---|
-----------------------|-----------------------|-----------------------|


                                                                        
-----------------------|-----------------------|-----------------------|
-----------------------|-----------------------|-----------------------|
--4----4--4----4--4----|--4----4--4----4--4----|-----------------------|
--4----4--4----4--4----|--4----4--4----4--4----|--4----4--4----4--4----|
--2----2--2----2--2----|--2----2--2----2--2----|--4----4--4----4--4----|
-----------------------|-----------------------|--2----2--2----2--2----|


                                                                        
-----------------------|-----------------------|-----------------------|
-----------------------|-----------------------|-----------------------|
-----------------------|--6----6--6----6--6----|--6----6--6----6--6----|
--4----4--4----4--4----|--6----6--6----6--6----|--6----6--6----6--6----|
--4----4--4----4--4----|--4----4--4----4--4----|--4----4--4----4--4----|
--2----2--2----2--2----|-----------------------|-----------------------|


                                                                        
-----------------------|-----------------------|-----------------------|
-----------------------|-----------------------|-----------------------|
--6----6--6----6--6----|--6----6--6----6--6/---|--4----4--4----4--4----|
--6----6--6----6--6----|--6----6--6----6--6/---|--4----4--4----4--4----|
--4----4--4----4--4----|--4----4--4----4--4/---|--2----2--2----2--2----|
-----------------------|-----------------------|-----------------------|


                                                               
-----------------------|-------------------|------------------|
-----------------------|-------------------|------------------|
--4----4--4----4--4----|--4----------------|------------------|
--4----4--4----4--4----|--4----------------|------------------|
--2----2--2----2--2----|--2----------------|------------------|
-----------------------|-------------------|------------------|

[ Tab from: http://www.guitartabs.cc/tabs/t/the_ataris/boys_of_summer_tab.html ]
                                                                             
------------------|------------------|-------------------|------------------|
------------------|------------------|-------------------|------------------|
------------------|------------------|--4----------------|------------------|
------------------|------------------|--4----------------|------------------|
------------------|------------------|--2----------------|------------------|
------------------|------------------|-------------------|------------------|


                                                                 
------------------|------------------|--------------------------|
------------------|------------------|--------------------------|
------------------|------------------|--8--8--8--8--8--8--8--8--|
------------------|------------------|--x--x--x--x--x--x--x--x--|
------------------|------------------|--6--6--6--6--6--6--6--6--|
------------------|------------------|--------------------------|


                                                      
--------------------------|--------------------------|
--------------------------|--------------------------|
--8--8--8--8--8--8--8--8--|--8--8--8--8--8--8--8--8--|
--x--x--x--x--x--x--x--x--|--x--x--x--x--x--x--x--x--|
--6--6--6--6--6--6--6--6--|--6--6--6--6--6--6--6--6--|
--------------------------|--------------------------|


                                                                   
-------------------------------|----------------------------------|
-------------------------------|----------------------------------|
--8--8--8--10--10--10--11--11--|--13--13--13--13--13--13--13--13--|
--x--x--x--x---x---x---x---x---|--x---x---x---x---x---x---x---x---|
--6--6--6--8---8---8---9---9---|--11--11--11--11--11--11--11--11--|
-------------------------------|----------------------------------|


                                                                    
----------------------------------|--------------------------------|
----------------------------------|--------------------------------|
--11--11--11--11--11--11--10--11--|--11--11--11--11--11--11--11/---|
--x---x---x---x---x---x---x---x---|--x---x---x---x---x---x---x-----|
--9---9---9---9---9---9---8---9---|--9---9---9---9---9---9---9/----|
----------------------------------|--------------------------------|


                                                                          
---------------------|-------------------------|-------------------------|
---------------------|-------------------------|-------------------------|
---------------------|-------------------------|-------------------------|
--4------6------8----|--6----6--6--6--6--6--6--|--6----6--6--6--6--6/-3--|
--x------x------x----|--x----x--x--x--x--x--x--|--x----x--x--x--x--x--x--|
--2------4------6----|--4----4--4--4--4--4--4--|--4----4--4--4--4--4/-1--|


                                                                               
--------------------------|-------------------------|-------------------------|
--------------------------|-------------------------|-------------------------|
--------------------------|-------------------------|-------------------------|
--3--3--3--3--3--3--3--3--|--3--3--3--4----4--6--6--|--6/-8--8--8--8--8--8/---|
--x--x--x--x--x--x--x--x--|--x--x--x--x----x--x--x--|--x--x--x--x--x--x--x----|
--1--1--1--1--1--1--1--1--|--1--1--1--2----2--4--4--|--4/-6--6--6--6--6--6/---|


                                                                               
--------------------------|-------------------------|-------------------------|
--------------------------|-------------------------|-------------------------|
-----------------------6--|--6----6--6--6--6--6--6--|--6--6--6--6--6--6-------|
--4--4--4--4--4--4--4--x--|--x----x--x--x--x--x--x--|--x--x--x--x--x--x--4/---|
--x--x--x--x--x--x--x--4--|--4----4--4--4--4--4--4--|--4--4--4--4--4--4--4/---|
--2--2--2--2--2--2--2-----|-------------------------|-------------------------|


                                                                      
----------------------------------|----------------------------------|
----------------------------------|----------------------------------|
--15--15--15--15--15--15--15--15--|--15--15--15--15--15--15--15--15--|
--x---x---x---x---x---x---x---x---|--x---x---x---x---x---x---x---x---|
--13--13--13--13--13--13--13--13--|--13--13--13--13--13--13--13--13--|
----------------------------------|----------------------------------|


                                                                      
----------------------------------|----------------------------------|
----------------------------------|----------------------------------|
--15--15--15--15--15--15--15--15--|--16--16--16--15--15--15--13--13--|
--x---x---x---x---x---x---x---x---|--x---x---x---x---x---x---x---x---|
--13--13--13--13--13--13--13--13--|--14--14--14--13--13--13--11--11--|
----------------------------------|----------------------------------|


                                                                    
--------------------------------|----------------------------------|
--------------------------------|----------------------------------|
--13/-15--13--11--11----11--11--|--11--11--11--11--11--11--11--11--|
--x---x---x---x---x-----x---x---|--x---x---x---x---x---x---x---x---|
--11/-13--11--9---9-----9---9---|--9---9---9---9---9---9---9---9---|
--------------------------------|----------------------------------|


                                                              
----------------------------------|--------------------------|
----------------------------------|--------------------------|
--11--11--11--11--11--11--11--11--|--11----11--13------15----|
--x---x---x---x---x---x---x---x---|--x-----x---x-------x-----|
--9---9---9---9---9---9---9---9---|--9-----9---11------13----|
----------------------------------|--------------------------|


                                                                      
----------------------------------|----------------------------------|
----------------------------------|----------------------------------|
--13--13--13--13--13--13--13--13--|--13--13--13--13--13--13--11/-10--|
--x---x---x---x---x---x---x---x---|--x---x---x---x---x---x---x---x---|
--11--11--11--11--11--11--11--11--|--11--11--11--11--11--11--9/--8---|
----------------------------------|----------------------------------|


                                                                    
----------------------------------|--------------------------------|
----------------------------------|--------------------------------|
--10--10--10--10--10--10--10--10--|--10--10--10--11--11/-13--13----|
--x---x---x---x---x---x---x---x---|--x---x---x---x---x---x---x-----|
--8---8---8---8---8---8---8---8---|--8---8---8---9---9/--11--11----|
----------------------------------|--------------------------------|


                                                                      
----------------------------------|----------------------------------|
----------------------------------|----------------------------------|
--18--18--18--18--18--18--18--18--|--18--18--18--18--18--18--18--18--|
--x---x---x---x---x---x---x---x---|--x---x---x---x---x---x---x---x---|
--16--16--16--16--16--16--16--16--|--16--16--16--16--16--16--16--16--|
----------------------------------|----------------------------------|


                                                                      
--------------------|----------------------------|-------------------|
--------------------|----------------------------|-------------------|
--18----------------|--18--18--18--18--18/-------|--8----------------|
--x-----------------|--x---x---x---x---x---------|--8----------------|
--16----------------|--16--16--16--16--16/-------|--6----------------|
--------------------|----------------------------|-------------------|


                                                                              
------------------|------------------|-------------------|-------------------|
------------------|------------------|-------------------|-------------------|
------------------|------------------|--------------8/---|--4----------------|
------------------|------------------|--------------8/---|--4----------------|
------------------|------------------|--------------6/---|--2----------------|
------------------|------------------|-------------------|-------------------|


                                                                               
------------------|------------------|-------------------|------|------|------|
------------------|------------------|-------------------|------|------|------|
------------------|------------------|--------------4/---|------|------|------|
------------------|------------------|--------------4/---|------|------|------|
------------------|------------------|--------------2/---|------|------|------|
------------------|------------------|-------------------|------|------|------|


                                                                    
------|------|------|--------------------------|-------------------|
------|------|------|--------------------------|-------------------|
------|------|------|--4--4--4--4--4--4--4--4--|--4----------------|
------|------|------|--4--4--4--4--4--4--4--4--|--4----------------|
------|------|------|--2--2--2--2--2--2--2--2--|--2----------------|
------|------|------|--------------------------|-------------------|


                                                                        
-----------------------|-----------------------|-----------------------|
-----------------------|-----------------------|-----------------------|
-----------------------|-----------------------|--6----6--6----6--6----|
--4----4--4----4--4----|--4----4--4----4--4----|--6----6--6----6--6----|
--4----4--4----4--4----|--4----4--4----4--4----|--4----4--4----4--4----|
--2----2--2----2--2----|--2----2--2----2--2----|-----------------------|


                                                                        
-----------------------|-----------------------|-----------------------|
-----------------------|-----------------------|-----------------------|
--6----6--6----6--6----|--6----6--6----6--6----|--6----6--6----6--6/---|
--6----6--6----6--6----|--6----6--6----6--6----|--6----6--6----6--6/---|
--4----4--4----4--4----|--4----4--4----4--4----|--4----4--4----4--4/---|
-----------------------|-----------------------|-----------------------|


                                                                        
-----------------------|-----------------------|-----------------------|
-----------------------|-----------------------|-----------------------|
--4----4--4----4--4----|--4----4--4----4--4----|-----------------------|
--4----4--4----4--4----|--4----4--4----4--4----|--4----4--4----4--4----|
--2----2--2----2--2----|--2----2--2----2--2----|--4----4--4----4--4----|
-----------------------|-----------------------|--2----2--2----2--2----|


                                                                        
-----------------------|-----------------------|-----------------------|
-----------------------|-----------------------|-----------------------|
-----------------------|--6----6--6----6--6----|--6----6--6----6--6----|
--4----4--4----4--4----|--6----6--6----6--6----|--6----6--6----6--6----|
--4----4--4----4--4----|--4----4--4----4--4----|--4----4--4----4--4----|
--2----2--2----2--2----|-----------------------|-----------------------|


                                                                        
-----------------------|-----------------------|-----------------------|
-----------------------|-----------------------|-----------------------|
--6----6--6----6--6----|--6----6--6----6--6/---|--4----4--4----4--4----|
--6----6--6----6--6----|--6----6--6----6--6/---|--4----4--4----4--4----|
--4----4--4----4--4----|--4----4--4----4--4/---|--2----2--2----2--2----|
-----------------------|-----------------------|-----------------------|


                                                                        
-----------------------|-----------------------|-----------------------|
-----------------------|-----------------------|-----------------------|
--4----4--4----4--4----|-----------------------|-----------------------|
--4----4--4----4--4----|--4----4--4----4--4----|--4----4--4----4--4----|
--2----2--2----2--2----|--4----4--4----4--4----|--4----4--4----4--4----|
-----------------------|--2----2--2----2--2----|--2----2--2----2--2----|


                                                                        
-----------------------|-----------------------|-----------------------|
-----------------------|-----------------------|-----------------------|
--6----6--6----6--6----|--6----6--6----6--6----|--6----6--6----6--6----|
--6----6--6----6--6----|--6----6--6----6--6----|--6----6--6----6--6----|
--4----4--4----4--4----|--4----4--4----4--4----|--4----4--4----4--4----|
-----------------------|-----------------------|-----------------------|


                                                                        
-----------------------|-----------------------|-----------------------|
-----------------------|-----------------------|-----------------------|
--6----6--6----6--6/---|--4----4--4----4--4----|--4----4--4----4--4----|
--6----6--6----6--6/---|--4----4--4----4--4----|--4----4--4----4--4----|
--4----4--4----4--4/---|--2----2--2----2--2----|--2----2--2----2--2----|
-----------------------|-----------------------|-----------------------|


                                                                        
-----------------------|-----------------------|-----------------------|
-----------------------|-----------------------|-----------------------|
-----------------------|-----------------------|--6----6--6----6--6----|
--4----4--4----4--4----|--4----4--4----4--4----|--6----6--6----6--6----|
--4----4--4----4--4----|--4----4--4----4--4----|--4----4--4----4--4----|
--2----2--2----2--2----|--2----2--2----2--2----|-----------------------|


                                                                        
-----------------------|-----------------------|-----------------------|
-----------------------|-----------------------|-----------------------|
--6----6--6----6--6----|--6----6--6----6--6----|--6----6--6----6--6/---|
--6----6--6----6--6----|--6----6--6----6--6----|--6----6--6----6--6/---|
--4----4--4----4--4----|--4----4--4----4--4----|--4----4--4----4--4/---|
-----------------------|-----------------------|-----------------------|


                                                                    
-----------------------|-----------------------|-------------------|
-----------------------|-----------------------|-------------------|
--4----4--4----4--4----|--4----4--4----4--4----|--8----------------|
--4----4--4----4--4----|--4----4--4----4--4----|--8----------------|
--2----2--2----2--2----|--2----2--2----2--2----|--6----------------|
-----------------------|-----------------------|-------------------|


                                                                                
-------------------|-------------------|-------------------|-------------------|
-------------------|-------------------|-------------------|-------------------|
--------------8/---|--4----------------|--------------4/---|--6----------------|
--------------8/---|--4----------------|--------------4/---|--6----------------|
--------------6/---|--2----------------|--------------2/---|--4----------------|
-------------------|-------------------|-------------------|-------------------|


                                                                              
-------------------|-------------------|------------------|------------------|
-------------------|-------------------|------------------|------------------|
--------------6/---|--4----------------|------------------|------------------|
--------------6/---|--4----------------|------------------|------------------|
--------------4/---|--2----------------|------------------|------------------|
-------------------|-------------------|------------------|------------------|


                    
------------------||
------------------||
------------------||
------------------||
------------------||
------------------||


Comments