The Allman Brothers Band - Ramblin Man Chords & Tabs

 

Ramblin Man Chords & Tabs

The Allman Brothers Band Chords & Tabs

Version: 3 Type: Tab 0 ratings
1 star 2 stars 3 stars 4 stars 5 stars
comments

Ramblin Man Tab

   
Ramblin Man

Intro:

E-15-----------------------------------12---------------|
B----17-15-----------------------------13p12-------17-15|
G----------16s14-12--------------12-14------14p12--17-16|
D-------------------14-12---12-14-----------------------|
A-------------------------------------------------------|
E-------------------------------------------------------|


Solo:
                    G            D       C                 G              
E------------------12------------------------------------------|
B---------------------15-15--15-12-----------------------------|
G------11-12-14-12-----------------14-1415-14-12--------------|
D-12-14------------------------------------------14-12---------|
A-----------------------------------------------------14-12-10-|
E--------------------------------------------------------------|
[ Tab from: http://www.guitartabs.cc/tabs/t/the_allman_brothers_band/ramblin_man_tab_ver_3.html ]
              G      C                   G
E-------------15-15-17b18-18-15-15---17--15---------------|
B-------15-17---------------------17--------17-15-17-15-17|
G-14/16---------------------------------------------------|
D---------------------------------------------------------|
A---------------------------------------------------------|
E---------------------------------------------------------|
                                                       
                                           C     
E-------15------------------------------------------------|
B--------------------15--17-15-17-------------------------|
G-16s14---16r1414s16--16-------16s14-12---12--14-12------|
D---------------------------------------14----------14-12-|
A---------------------------------------------------------|
E---------------------------------------------------------|

  D                            C                  G
E--------------------------------------------------------------|
B--------------------------------------------------------------|
G------------------------------12-15s14-12--14-12-15r14-12-12--|
D-12-12-14-12-14-15s14-12----14--------------------------------|
A--------------------------------------------------------------|
E--------------------------------------------------------------|


        Em               C                 G
E------------------------------------------15-15-17|
B-------13p12-----------------------15-17----------|
G-14-12------14-14p12---------14s16----------------|
D---------------------14-14------------------------|
A--------------------------------------------------|
E--------------------------------------------------|

           D                 G
E-15-------------------------------------------------|
B---17-15--17-15-------------13p12-------------------|
G--------16------16s14-12---------14p12-14--12-14-12-|
D------------------------14--------------------------|
A----------------------------------------------------|
E----------------------------------------------------|

   
E----------------------------------------------------|
B----------------------------------------------------|
G-12-------------------------------------------------|
D---14-12--------------------------------------------|
A---------14-12--------------------------------------|
E----------------------------------------------------|

This is the easiest way I've found and it sounds pretty
close to me. Any questions comments or suggestions feel
free to email me.
Comments