The Allman Brothers Band - Melissa Chords & Tabs

 

Melissa Chords & Tabs

The Allman Brothers Band Chords & Tabs

Version: 4 Type: Tab

Melissa Tab

   
                            Melissa (Gregg Allman)
                           The Allman Brothers Band
                                  Eat A Peach

I figured that since version 3 got the lead electric almost perfectly, I would just do the tab for the chords

Intro (* means to strum a few times):
  *     *     *     *
|-0-----0-----0-----0---|
|-0-----0-----0-----0---|
|-1-----2-----4-----2---|
|-2-----4-----6-----4---|
|-2-----4-----6-----4---|
|-0-----0-----0-----0---|

another way to do the intro:
  *     *     *     *
|-0-----2-----4-----2---|
|-0-----2-----4-----2---|
|-1-----2-----4-----2---|
|-2-----4-----6-----4---|
|-2-----4-----6-----4---|
|-0-----2-----4-----2---|
[ Tab from: http://www.guitartabs.cc/tabs/t/the_allman_brothers_band/melissa_tab_ver_4.html ]
A 3rd way to do the intro:
  *     *     *     *
|-0-----2-----0-----2---|
|-0-----2-----0-----2---|
|-1-----2-----1-----2---|
|-2-----4-----1-----4---|
|-2-----4-----2-----4---|
|-0-----2-----0-----2---|

And the last way I can think of to do the intro:
  *     *     *     *
|-0-----0-----0-----0---|
|-0-----0-----0-----0---|
|-1-----2-----1-----2---|
|-2-----4-----1-----4---|
|-2-----4-----2-----4---|
|-0-----0-----0-----0---|



Here's from "Knowing many, loving none"
  *  *  *  *  *  *  *  *  *     *
|-0--0--0--0--0--0--0--0--0-----2---|
|-2--3--5--7--0--0--0--2--1-----4---|
|-2--4--6--7--1--2--4--2--0-----4---|
|-2--4--6--7--2--4--6--2--2-----4---|
|-0--0--0--0--2--4--6--0--3-----2---|
|-------------0--0--0---------------|


Chords:
E
  Again the morning comes
D  
  Again he's on the run
A
  Sunbeams shinin' through
B
  appears not to have a care
C#m                           A       B
  Pick up your gear and gypsy roll on, roll on.

That should cover the whole song.