The Allman Brothers Band - Jessica Chords & Tabs

 

Jessica Chords & Tabs

The Allman Brothers Band Chords & Tabs

Version: 1 Type: Bass Tab

Jessica Bass Tab

Jessica-----Allman Brothers Band
Tabbed by: Thayer
email: livewire2690@comcast.net


G|------------2-------|--------2----| x2
D|--------2/4---------|----2/4------|
A|---------------0----|-----------0-|
E|--------------------|-------------|
[ Tab from: http://www.guitartabs.cc/tabs/t/the_allman_brothers_band/jessica_btab.html ]
G|--------2---------|
D|----2/2---4-2-----|
A|--------------4-2-|
E|------------------|

G|--------------2--2-2-----------| x3
D|----------2/4---------2--2-4-2-|
A|-0----2/4----------------------|
E|-------------------------------|

G|--------------2--2-2------2-----|
D|----------2/4---------2/4---4-2-|
A|-0----2/4-----------------------|
E|--------------------------------|