The All American Rejects - Swing Swing Chords & Tabs

 

Swing Swing Chords & Tabs

The All American Rejects Chords & Tabs

Version: 5 Type: Tab 0 ratings
1 star 2 stars 3 stars 4 stars 5 stars
comments

Swing Swing Tab

The All American Rejects

Swing, Swing

Standard Tuning

I know this is and old song but its one of my favorites and every other tab for this song 
sucks so I thought that I’d post one that’s right. This is 100% correct without question.

Intro: Guitar 1
                   Nick plays these chords live but G D E C power chords sound fine.
-3-3---3-----3-3---3-----3-3---3-----3-3---3--------------------------------------------
-3-3---3-----3-3---3-----3-3---3-----3-3---3--------------------------------------------
-0-0---0-----0-0---0-----0-0---0-----0-0---0-----x2-------------------------------------
-0-0---0-----0-0---0-----2-2---2-----2-2---2--------------------------------------------
-2-2---2-----x-x---x-----2-2---2-----3-3---3--------------------------------------------
-3-3---3-----2-2---2--------------------------------------------------------------------

Intro (cont.):
-3----------2---------3---------3-------------------------------------------------------
-3----------3---------3---------3-------------------------------------------------------
-0-x8------ 2-x8----- 0-x8----- 0-x8----------------x2----------------------------------
-0----------0---------2---------2-------------------------------------------------------
-2----------x---------2---------3-------------------------------------------------------
-3----------2---------------------------------------------------------------------------

Verse:
-3-3---3-----3-3---3-----3-3---3-----3-3---3--------------------------------------------
-3-3---3-----3-3---3-----3-3---3-----3-3---3--------------------------------------------
-0-0---0-----0-0---0-----0-0---0-----0-0---0-----x2-------------------------------------
-0-0---0-----0-0---0-----2-2---2-----2-2---2--------------------------------------------
-2-2---2-----2-2---2-----2-2---2-----3-3---3--------------------------------------------
-3-3---3-----3-3---3--------------------------------------------------------------------
[ Tab from: http://www.guitartabs.cc/tabs/t/the_all_american_rejects/swing_swing_tab_ver_5.html ]
Pre-Chorus:
--------------------------3----------3---3-------3--------------------------------------
----------------5---------3---3------3-3--3------3--------------------------------------
-5-------2------5-x8------0-0--0-----0--0--0-----0--------------------------------------
-5-x16---2-x8---3---------0--0--0----2------0----2--------------------------------------
-3-------0----------------2------2---3-----------3--------------------------------------
--------------------------3-------------------------------------------------------------
P.M..................

Chorus:
-3----------2---------3---------3-------------------------------------------------------
-3----------3---------3---------3-------------------------------------------------------
-0-x8------ 2-x8----- 0-x8----- 0-x8----------------x2----------------------------------
-0----------0---------2---------2-------------------------------------------------------
-2----------x---------2---------3-------------------------------------------------------
-3----------2---------------------------------------------------------------------------

Verse
Pre-Chorus
Chorus

Solo:
-1-1/3--3-3--10-8--7-7-8----15----12h14-12-----------15--15-15--------15-------15-------
-------------------------8-----12----------12-12h13--15--15-15-13-12-----12-12----13----
----------------------------------------------------------------------------------------
----------------------------------------------------------------------------------------
----------------------------------------------------------------------------------------
----------------------------------------------------------------------------------------

Solo (cont.):
---------15--15-15--------14-14-14-14--15-15-15-15\-------------------------------------
---------15--15-15-12-12--15-15-15-15--12-12-12-12\-------------------------------------
-14-12----------------------------------------------------------------------------------
----------------------------------------------------------------------------------------
----------------------------------------------------------------------------------------
----------------------------------------------------------------------------------------

Bridge:         strum this part slowly
----------------3~---3~---3-3-2-2---------3-3-2-2-------3------3------------------------
----------------3~---3~---3-3-----3-3-1-1-3-3-----3-3-1-3------3------------------------
--------7-7-----0~---0~---0-0-------------0-0-----------0-x8---0-x8---------------------
-5-5----7-7-----0~---2~---2-2-------------2-2-----------2------2------------------------
-5-5----5-5-----2~---3~---3-3-------------3-3-----------2------3------------------------
-3-3------------3~----------------------------------------------------------------------

Chorus

Well thats it and im positive this is 100% right.

Comments