The All American Rejects - Swing Swing Chords & Tabs

 

Swing Swing Chords & Tabs

The All American Rejects Chords & Tabs

Version: 2 Type: Tab 3 ratings
1 star 2 stars 3 stars 4 stars 5 stars
comments

Swing Swing Tab

   
artist: All-American Rejects
title: Swing Swing
tabbed by: Phillip C.

okay here we go guys!!!


intro
   G5                       E5          C5
E---------------------------------------------------|
B---------------------------------------------------|
G---------------------------------------5-5----5----|
D--5-5----5-----5-5----5----2-2----2----5-5----5----|
A--5-3----5-----5-5----5----2-2----2----3-3----3----|
E--3-3----3-----2-2----2----0-0----0----------------|

chorus riff
   G5                              E5              C5
E-------------------------------------------------------------------|
B-------------------------------------------------------------------|
G--------------------------------------------------5-5-5-5-5-5-5-5--|
D--5-5-5-5-5-5-5-5-5-5-5-5-5-5-5-5-2-2-2-2-2-2-2-2-5-5-5-5-5-5-5-5--|
A--5-5-5-5-5-5-5-5-5-5-5-5-5-5-5-5-2-2-2-2-2-2-2-2-3-3-3-3-3-3-3-3--|
E--3-3-3-3-3-3-3-3-2-2-2-2-2-2-2-2-0-0-0-0-0-0-0-0------------------|

verse
   Gmaj 
E--3-3----3-----3-3----3-----3-3----3----3-3----3---|
B--3-3----3-----3-3----3-----3-3----3----3-3----3---|
G---------------------------------------------------|
D---------------------------------------------------|
A---------------------------------------------------|
E---------------------------------------------------|
[ Tab from: http://www.guitartabs.cc/tabs/t/the_all_american_rejects/swing_swing_tab_ver_2.html ]
pre chorus part 1
   G5                              E5              C5
E-------------------------------------------------------------------|
B-------------------------------------------------------------------|
G--------------------------------------------------5-5-5-5-5-5-5-5--|
D--5-5-5-5-5-5-5-5-5-5-5-5-5-5-5-5-2-2-2-2-2-2-2-2-5-5-5-5-5-5-5-5--|
A--5-5-5-5-5-5-5-5-5-5-5-5-5-5-5-5-2-2-2-2-2-2-2-2-3-3-3-3-3-3-3-3--|
E--3-3-3-3-3-3-3-3-3-3-3-3-3-3-3-3-0-0-0-0-0-0-0-0------------------|

pre chorus part 2
   B5/F#    C5/G       D5/A  E5/B  
E-------------------------------|
B-------------------------------|
G--4--------5------------7-7-9--|
D--4--------5------------7-7-9--|
A--2--------3------------5-5-7--|
E--2--------3------------5-5-7--|

bridge part 1
   G5              D5          Gmaj
E------------------------------3---3--|
B------------------------------3---3--|
G------------------7-7---------4---4--|
D--5-5-------------7-7---------5---5--|
A--5-5-------------5-5---------5---5--|
E--3-3-------------------------3---3--|

bridge part 2
this part varies between what i believe are Emin7 and 9 and alternates
E---------------------|
B------10---8---8-10--|
G--7-7----7---7-------|
D---------------------|
A---------------------|
E---------------------|

_______________________________________________________________________
i have it all laid out...only i don't know the solo i suck at tabbing 
solos. Both are pretty much the same from what i hear...but that's all
i know so prey for some one who can hook you up with that solo parts...
the rest is laid out for you here...and remember the proof is in the
pudding
_______________________________________________________________________

intro              x 2
chorus riff        x 2
verse              x 2
pre chorus part 1  x 2
pre chorus part 2   
chorus             x 2
verse              x 2
pre chorus part 1  x 2
pre chorus part 2   
chorus             x 2
solo
bridge part 1
bridge part 2      x 3
chorus             x 2
solo/outro    
Comments