The Airborne Toxic Event - Missy Chords & Tabs

 

Missy Chords & Tabs

The Airborne Toxic Event Chords & Tabs

Version: 1 Type: Bass Tab

Missy Bass Tab

   
There's no tab for this song so I figure I'll give it a shot.  Comments and 
ratings are much appreciated =)

Entrance at 0:54
G-----------|
D-----------|
A-----------|
E-6~-65~-53~|

Main Riff part 1 x3

G------------------------|
D------------------------|
A-88-77-55---5-----------|
E---------8-8------------|

Main Riff part 2

G-----------------------------|
D-----------------------------|
A-----------------------------|
E-6-6-6-6-666666-5-5-5-5-55555|

Main Riff part 1 x3

G------------------------|
D------------------------|
A-88-77-55---5-----------|
E---------8-8------------|

Main Riff part 2

G-----------------------------|
D-----------------------------|
A-----------------------------|
E-6-6-6-6-666666-5-5-5-5-55555|

Main Riff End
G---------------------------------|
D---------------------------------|
A---------------------------------|
E-6-6-6-6-666666-5~~53~~31~~-138~~|

Guitar Solo part 1 x3
G------------------------|
D------------------------|
A-88-77-55---5-----------|
E---------8-8------------|

part 2
(12's not 1s and 2s)
G---------------------------------|
D---------------------------------|
A---------------------------------|
E-6-6-6-6-666666-5-5-5-5-55/121212|

Guitar Solo part 3 x3
G------------------------|
D------------------------|
A-88-77-55---5-----------|
E---------8-8------------|

part 4

G-----------------------------|
D-----------------------------|
A-----------------------------|
E-6-6-6-6-666666-5-5-5-5-55555|
[ Tab from: http://www.guitartabs.cc/tabs/t/the_airborne_toxic_event/missy_btab.html ]
End
G-------------------------------------------|
D-------------------------------------------|
A-------------------------------------------|
E-6-6-6-6-666666-5~~53~~31~~-138~~138~~138~~|


Bass Solo part 1

G--------------------------------------------|
D--------------------------------------------|
A-88-77-55---5---88-77-55----88-77-55---5----|
E---------8-8------------8-----------8-8-----|

Bass Solo part 2 
G---------------------------------|
D---------------------------------|
A---------------------------------|
E-6~6~65~~------------------------|

Bass Solo part 3 x3
G------------------------|
D------------------------|
A-88-77-55---5-----------|
E---------8-8------------|

Bass Solo End
G------------------------------------------|
D------------------------------------------|
A------------------------------------------|
E-6~6~65~5~56~~6~~65~~53~~31~~~~138~~138~~-|


Final Verse part 1 x3
G------------------------|
D------------------------|
A-88-77-55---5-----------|
E---------8-8------------|

part 2
(12's not 1s and 2s)
G---------------------------------|
D---------------------------------|
A---------------------------------|
E-6-6-6-6-666666-5-5-5-5-55/121212|

Final Verse part 3 x3
G------------------------|
D------------------------|
A-88-77-55---5-----------|
E---------8-8------------|

part 4

G-----------------------------|
D-----------------------------|
A-----------------------------|
E-6-6-6-6-666666-5-5-5-5-55555|

End
G---------------------------------|
D---------------------------------|
A---------------------------------|
E-6-6-6-6-666666-5~~53~~31~~-138~~|