The Academy Is - Season Chords & Tabs

 

Season Chords & Tabs

The Academy Is Chords & Tabs

Version: 1 Type: Tab 0 ratings
1 star 2 stars 3 stars 4 stars 5 stars
comments

Season Tab

   
This is a band that's relatively new and unheard of.  I saw them opening for Fall Out
Boy and they pretty much stole the show.  This is a good song by a good band.  Hope
you all like it.  Check out some of their stuff at http://www.theacademyis.com

----------------------------------------------------------------------
			SEASON - The Academy Is...
----------------------------------------------------------------------


Tabbed by: Scott
Email: sdflett@uiuc.edu


Tuning: Standard (EADgbe)

(Verse 1)

Bm						
Wake up, think fast. Three weeks have passed. 
G
We are changing.
Bm						
No sleep, no gas, no excuses will 
G
pass these lips 'cause we're shaping up to be
Bm
all you wish you could have been.
G
To write the hits and to turn their heads, and to
Bm
open eyes (open your eyes)
G
to a brand new season. A brand new season. 

(Chorus)

D
So show me something we 
G
haven't heard yet. But I'm 
Bm
not convinced, and your 
A
heartless songs won't stick but I
D
I'll sing you something you 
G
won't forget. For the 
Bm
first time I know 
A
this is now who I am.

(Fill)
[ Tab from: http://www.guitartabs.cc/tabs/t/the_academy_is/season_tab.html ]
e|--12-9----------------------12-9----------|
b|-------10------------------------10-------|
g|----------11------------------------11----|
D|-------------9-9-11-12-11--------------9--|
A|------------------------------------------|
E|------------------------------------------|

(Verse 2)

Bm						
Wake up, think fast. Three weeks have 
G
passed these lips 'cause we're shaping up to be
Bm
all you wish you could have been.
G
To write the hits and to turn heads (to turn heads), and to
Bm
open eyes (open your eyes)
G
to a brand new season. A brand new season. 

(Chorus)

D
So show me something we 
G
haven't heard yet. But I'm 
Bm
not convinced, and your 
A
heartless songs won't stick but I
D
I'll sing you something you 
G
won't forget. For the 
Bm
first time I know 
A		   Bm	A   E   G   Bm   A   E   G
this is now who I am.    

(Bridge)

A
You'll see what we 
G
mean. You'll 
A
notice when we're 
G
gone.

(Chorus) 2x

(Outro)

e|--12-9----------------------12-9----------|
b|-------10------------------------10-------|
g|----------11------------------------11----|
D|-------------9-9-11-12-11--------------9--|
A|------------------------------------------|
E|------------------------------------------|
Comments