The Academy Is - Classifieds Chords & Tabs

 

Classifieds Chords & Tabs

The Academy Is Chords & Tabs

Version: 1 Type: Tab 0 ratings
1 star 2 stars 3 stars 4 stars 5 stars
comments

Classifieds Tab

   
Song: Classifieds
Artist: The Academy Is...
Album: Almost Here
Tuning: Standard

This is a fun, simple song to play.
	
Intro: Drums and then Guitar Chords come during verse
	  
Verse 1: 
  (0:03)            (0:11)	     (0:19)	     (0:26)
    C 		      A                C               A
|---8-----------------5----------------8---------------5-----------------|
|---8-----------------5----------------8---------------5-----------------|
|---9-----------------6----------------9---------------6-----------------|
|---10--(Ring out)----7--(Ring out)----10-(Ring out)---7--(Ring out)-----|
|---10----------------7----------------10--------------7-----------------|
|---8-----------------5----------------8---------------5-----------------|
	
Pre-Chorus:
   C                Cm               C                Cm
|--8-8-8-8-8-8-8-8--8-8-8-8-8-8-8-8--8-8-8-8-8-8-8-8--8-8-8-8-8-8-8-8----|
|--8-8-8-8-8-8-8-8--8-8-8-8-8-8-8-8--8-8-8-8-8-8-8-8--8-8-8-8-8-8-8-8----|
|--9-9-9-9-9-9-9-9--8-8-8-8-8-8-8-8--9-9-9-9-9-9-9-9--8-8-8-8-8-8-8-8----|
|--1010101010101010-1010101010101010-1010101010101010-1010101010101010---|
|--1010101010101010-1010101010101010-1010101010101010-1010101010101010---|
|--8-8-8-8-8-8-8-8--8-8-8-8-8-8-8-8--8-8-8-8-8-8-8-8--8-8-8-8-8-8-8-8----|
	
Chorus:
(Repeat Note Until 0:48)	 (Repeat Note Until 0:55)
|---8-8-8-8-8-8-8-8----------------5-5-5-5-5-5-5-5-----------------------|
|---8-8-8-8-8-8-8-8----------------5-5-5-5-5-5-5-5-----------------------|
|---9-9-9-9-9-9-9-9----------------6-6-6-6-6-6-6-6-----------------------|
|---1010101010101010--(x4)---------7-7-7-7-7-7-7-7--(x4)-----------------|
|---1010101010101010---------------7-7-7-7-7-7-7-7-----------------------|
|---8-8-8-8-8-8-8-8----------------5-5-5-5-5-5-5-5-----------------------|

|---5-5---------5-5---------5-5---------5-5------------------------------|
|---5-5---------5-5---------5-5---------5-5------------------------------|
|---6-6---------6-6---------6-6---------6-6------------------------------|
|---7-7--5h7p5--7-7--5h7p5--7-7--5h7p5--7-7--5h7-5h7---7-----------------|
|---7-7---------7-7---------7-7---------7-7------------7-(Ring Out)------|
|---5-5---------5-5---------5-5---------5-5------------5-----------------|
[ Tab from: http://www.guitartabs.cc/tabs/t/the_academy_is/classifieds_tab.html ]
Verse 2:
Lightly Palm Mute
|----------------------------------------------------5-------------------|
|----------------------------------------------------5-------------------|
|----------------------------------------------------6-------------------|
|--77--7--777----7--77---7-777--7-77--7-777--7-77----7-(x16)-------------|
|--77--7--777----7--77---7-777--7-77--7-777--7-77----7-------------------|
|--55--5--555----5--55---5-555--5-55--5-555--5-55----5-------------------|

Play Pre-Chorus
	
Play Chorus

Bridge:
   A                G                A                C
|--5-5-5-5-5-5-5-5--3-3-3-3-3-3-3-3--5-5-5-5-5-5-5-5--8-8-8-8-8-8-8-8-----|
|--5-5-5-5-5-5-5-5--3-3-3-3-3-3-3-3--5-5-5-5-5-5-5-5--8-8-8-8-8-8-8-8-----|
|--6-6-6-6-6-6-6-6--4-4-4-4-4-4-4-4--6-6-6-6-6-6-6-6--9-9-9-9-9-9-9-9-----|
|--7-7-7-7-7-7-7-7--5-5-5-5-5-5-5-5--7-7-7-7-7-7-7-7--1010101010101010----|x2
|--7-7-7-7-7-7-7-7--5-5-5-5-5-5-5-5--7-7-7-7-7-7-7-7--1010101010101010----|
|--5-5-5-5-5-5-5-5--3-3-3-3-3-3-3-3--5-5-5-5-5-5-5-5--8-8-8-8-8-8-8-8-----|

|--5-5-5-5-5-5-5-5-5-5-5-5-5-5-5-5----------------------------------------|
|--5-5-5-5-5-5-5-5-5-5-5-5-5-5-5-5----------------------------------------|
|--6-6-6-6-6-6-6-6-6-6-6-6-6-6-6-6----------------------------------------|
|--7-7-7-7-7-7-7-7-7-7-7-7-7-7-7-7----------------------------------------|
|--7-7-7-7-7-7-7-7-7-7-7-7-7-7-7-7----------------------------------------|
|--5-5-5-5-5-5-5-5-5-5-5-5-5-5-5-5----------------------------------------|

Last Chorus:
|---8-8-8-8-8-8-8-8----------------5-5-5-5-5-5-5-5------------------------|
|---8-8-8-8-8-8-8-8----------------5-5-5-5-5-5-5-5------------------------|
|---9-9-9-9-9-9-9-9----------------6-6-6-6-6-6-6-6------------------------|
|---1010101010101010--(x4)---------7-7-7-7-7-7-7-7--(x4)------------------|x2
|---1010101010101010---------------7-7-7-7-7-7-7-7------------------------|
|---8-8-8-8-8-8-8-8----------------5-5-5-5-5-5-5-5------------------------|

End On...
|------------5------------------------------------------------------------|
|------------5------------------------------------------------------------|
|------------6--(Let it Ring)---------------------------------------------|
|------------7------------------------------------------------------------|
|------------7------------------------------------------------------------|
|------------5------------------------------------------------------------|
Comments