The Academy Is - Checkmarks Chords & Tabs

 

Checkmarks Chords & Tabs

The Academy Is Chords & Tabs

Version: 2 Type: Tab

Checkmarks Tab

   
-------------------------------------------------------------------------------
			     CHECKMARKS - The Academy Is...
-------------------------------------------------------------------------------
Tabbed by: Jordan
Email:iwantmusic57@gmail.com

Tuning: Dropped D (DADGBe)

INTRO/VERSE

e|-----------------------------------------|
B|-----------------------------------------|
G|------------999-777-------------555-777--| x4
D|-7-7-x-x-x--777-555--7-7-x-x-x--333-555--|
A|-7-7-x-x-x-----------7-7-x-x-x-----------|
D|-7-7-x-x-x-----------7-7-x-x-x-----------|

e|----|
B|----|
G|----|
D|-7~-| x4
A|-7~-|
D|-7~-|


CHORUS
-
e|-----------------------------------------------------------------------------|
B|-----------------------------------------------------------------------------|
G|-----------------------------------------------------------------------------|
D|-7-0--7-0----7-0--55555555-33333333-7-0--7-0----7-0--10101010101010-33333333-|
A|-7-0--7-0----7-0--55555555-33333333-7-0--7-0----7-0--10101010101010-33333333-|
D|-7-0--7-0----7-0--55555555-33333333-7-0--7-0----7-0--10101010101010-33333333-|

[ Tab from: http://www.guitartabs.cc/tabs/t/the_academy_is/checkmarks_tab_ver_2.html ]
Verse Two
Guitar one
e|-----------------------------------------|
B|-----------------------------------------|
G|------------999-777-------------555-777--|
D|-7-7-x-x-x--777-555--7-7-x-x-x--333-555--|
A|-7-7-x-x-x-----------7-7-x-x-x-----------|
D|-7-7-x-x-x-----------7-7-x-x-x-----------|


Guitar Two
e|---------------|
B|---------------|
G|-8\6/8/10/13~~-|
D|---------------|
A|---------------|
D|---------------|

Repeat all this

Bass interlude

BRIDGE


e|--------|
B|--------|
G|-666666-|
D|--------|
A|--------|
D|--------|


e|--------------------------------------------------------------------|
B|--------------------------------------------------------------------|
G|--------------------------------------------------------------------|
D|-7777777777777777-10101010101010101010101010101010-5555555555555555-|
A|-7777777777777777-10101010101010101010101010101010-5555555555555555-|
D|-7777777777777777-10101010101010101010101010101010-5555555555555555-|

e|------------------|
B|------------------|
G|------------------|
D|-3333333333333333-| x2
A|-3333333333333333-|
D|-3333333333333333-|

Chorus

End On
e|----------------|
B|----------------|
G|----------------|
D|-7777777777777\-| 
A|-7777777777777\-|
D|-7777777777777\-|

pretty easy to play and i know a few things are missing but it douns almost the same so yup there you go.

| /  slide up
| \  slide down
| h  hammer-on
| p  pull-off
| ~  vibrato
| +  harmonic
| x  Mute note
===============================================================================