The Academy Is - Checkmarks Chords & Tabs

 

Checkmarks Chords & Tabs

The Academy Is Chords & Tabs

Version: 1 Type: Tab 0 ratings
1 star 2 stars 3 stars 4 stars 5 stars
comments

Checkmarks Tab

-------------------------------------------------------------------------------
			     Checkmarks-The Academy Is...
-------------------------------------------------------------------------------

Tabbed by: Joe
Tuning: standard
listen to the song to get the right rhythm

Guitar 1

intro/verse
e|------------------------------------------------------------------|
B|------------------------------------------------------------------|
G|-------------------9-9-9---7-7-7-------------------5-5-5---7-7-7--|
D|---7--7--x-x-x--9-9-9---7-7-7---7--7--x-x-x--5-5-5---7-7-7--------|      x4
A|---7--7--x-x-x--7-7-7---5-5-5---7--7--x-x-x--3-3-3---5-5-5--------|
E|---5--5--x-x-x----------------------5--5--x-x-x-------------------|


prechorus (you get me out of the rain, you get me out of my clothes...)
e|-----------------------------------------------------------------------------|
B|-----------------------------------------------------------------------------|
G|-----------------------------------------------------------------------------|
D|---7----7----7----7----7----555555555555-------------------------------------|
A|---7----7----7----7----7----555555555555-------------------------------------|
E|---5----5----5----5----5----333333333333-------------------------------------|


chorus (x2)
e|-----------------------------------------------------------------------|
B|-----------------------------------------------------------------------|
G|-----------------------------------------------------------------------|
D|--2--2--2---2-2-2---2--2--2---2-2-2---5-5-5-5-5-5-5-5-3-3-3-3-3-3-3-3--|
A|--2--2--2---2-2-2---2--2--2---2-2-2---5-5-5-5-5-5-5-5-3-3-3-3-3-3-3-3--|
E|--0--0--0---0-0-0---0--0--0---0-0-0---3-3-3-3-3-3-3-3-1-1-1-1-1-1-1-1--|
[ Tab from: http://www.guitartabs.cc/tabs/t/the_academy_is/checkmarks_tab.html ]
e|--------------------------------------------------------------------------------------|
B|--------------------------------------------------------------------------------------|
G|-----------------------------------------------5-5-5-5-5-5-5-5------------------------|
D|--2--2--2---2-2-2---2--2--2---2-2-2---5-5-5-5-5-5-5-5--3-3-3-3------------------------|
A|--2--2--2---2-2-2---2--2--2---2-2-2---3-3-3-3-3-3-3-3--3-3-3-3------------------------|
E|--0--0--0---0-0-0---0--0--0---0-0-0--------------------------1-1-1-1------------------|

verse x3

"and now you sit here and talk about how you wanted it all..."
e|-----------------------------------------------------------------------------|
B|-----------------------------------------------------------------------------|
G|-----------------------------------------------------------------------------|
D|--7--7--7-7-7-7--------------------------------------------------------------|
A|--7--7--7-7-7-7----x4--------------------------------------------------------|
E|--5--5--5-5-5-5--------------------------------------------------------------|
then
e|-----------------------------------------------------------------------------|
B|-----------------------------------------------------------------------------|
G|-----------------------------------------------------------------------------|
D|---7---7----55555555---------------------------------------------------------|
A|---7---7----55555555---------------------------------------------------------|
E|---5---5----33333333---------------------------------------------------------|

chorus (x2)

                       "do you miss..."
e|-----------|--------------------------------------|----|
B|--------3--|--------------------------------------|----|
G|--5----2---|------------5-------------------------|----|
D|--5--------|--7---------5--x16---5--------3-------|--x2|
A|--3--------|--7--x16----3--------5--x16---3--x16--|----|
E|-----------|--5------------------3--------1-------|----|

chorus (x2)
Comments