The Academy Is - Checkmarks Chords & Tabs

 

Checkmarks Chords & Tabs

The Academy Is Chords & Tabs

Version: 1 Type: Bass Tab 0 ratings
1 star 2 stars 3 stars 4 stars 5 stars
comments

Checkmarks Bass Tab

The Academy Is
Checkmarks
-Standard Tuning-

Intro: guitar starts out
0:11

G|---------------------------------------------------------------------------|
D|---------------------------------------------------------------------------|
A|------------------------------------3-3-3-5-5-5----------------------------|
E|-10/---5-5-575-1-1-1-3-3-3---5-575-----------------------------------------|X2

0:24

Pre-Chorus
G|--------------------------------------------------------------------------|
D|--------------------------------------------------------------------------|
A|--------------------------------------------------------------------------|
E|--5~-----5~-------5~------5~---------3333333------------------------------|X1

Chorus:

G|--------------------------------------------------------------------------|
D|--------------------------------------------------------------------------|
A|--------------------------------------------------------3333--------------|
E|--55-0-55-0-55-0-55-0-3333-1111----55-0-55-0-55-0-55-0-------1111---------|X2

Just play the intro again, then the guitar plays a little
[ Tab from: http://www.guitartabs.cc/tabs/t/the_academy_is/checkmarks_btab.html ]
1:16
G|-------------------------------------------------------------------------|
D|-------------------------------------------------------------------------|
A|---10/-3-3-3-3-5-5-5-----------------------------------------------------|
E|----------------------5-55-555-55-555-55-555-5-555-5-555-5-555-5-555-----|X1

1:24-(JUST PLAY THE PRECHORUS AGAIN)
1:30-(CHORUS)

1:54
G|-------------------------------------------------------------------------------|
D|-------------------------------------------------------------------------------|
A|-------------------------------------------------------------------------------|
E|-55-575--1-1-1-1-3-3-3-3--55-575--3-3-3-3-5-5-5-5--55-575--1-1-1-1-3-3-3-3--1~-|

2:06
G|--------------------------------------------------------------------------|
D|--------------------------------------------------------------------------|
A|------------------333-333-333-333-----------------------------------------|
E|--555-555-555-555-----------------333-333-333-333-111-111-111-111---------|

G|--------------------------------------------------------------------------|
D|--------------------------------------------------------------------------|
A|-----------------333-333-333-333------------------------------------------|
E|--555-555-555-555-----------------333-333-333-333-0h11-111-3--------------|

2:30-(CHORUS)

End on:-

A|--5-5-5-5-5-5-5-5-5-5-5-5-5-5-5-------


Thats it.Enjoy
Comments