The Academy Is - Attention Chords & Tabs

 

Attention Chords & Tabs

The Academy Is Chords & Tabs

Version: 1 Type: Bass Tab

Attention Bass Tab

   
-------------------------------------------------------------------------------
			     Attention - The Academy Is
-------------------------------------------------------------------------------

Tabbed By : matt
e-mail: snwbrd5830@aol.com

Tuning:D, A , D, G

Listen to the song for the timing.
G|------------------------------------------------------------|
D|------------------------------------------------------------|
A|--00---00-00-00---00-00-----------00-00-00-00-00------------|
D|------------------------44--00-00---------------------------|

G|------------------------------------------------------------|
D|------------------------------------------------------------|
A|--00-00--------0-0-0-0-0-0-0-0------------------------------|
D|--------44-0~------------------000000000-44-444-444-44------|

G|------------------------------------------------------------|
D|------------------------------------------------------------|
A|----------------0-0-0-0-0-0-0-0-----------------------------|
D|--00-000-000-00-----------------000000000-44-444-444-44-----|

G|------------------------------------------------------------|
D|------------------------------------------------------------|
A|-----------------0-0-0-0-0-0-0-0-0-0-0-0-0-0-0-0-0-0-0-0-0--|
D|--00-000-000-00-------------4-------------4-----------------|
[ Tab from: http://www.guitartabs.cc/tabs/t/the_academy_is/attention_btab.html ]
G|------------------------------------------------------------|
D|------------------------------------------------------------|
A|--------------00-00-00-00-00--00-00-------------------------|
D|--4-4-4-4-0~------------------------44-00-00-44-0~----------|

G|------------------------------------------------------------|
D|------------------------------------------------------------|
A|--0-0-0-0-0-0-0-0-------------------------------------------|
D|------------------000000000-44-444-444-44--00-000-000-00----|

G|------------------------------------------------------------|
D|------------------------------------------------------------|
A|--0-0-0-0-0-0-0-0--------------------0~---------------------|
D|------------------000000000--2~--4~-----0~--0-0----0-0------|

G|------------------------------------------------------------|
D|------------------------------------------------------------|
A|-------------------------------------------------------0-0--|*pause*
D|--4-4---4-4---0-0---0-0---4-4---4-42424--00-000--0-0--------|

G|------------------------------------------------------------|
D|------------------------------------------------------------|
A|-------------------------------00-000-000-000---------------|
D|--44-444-444-44--00-000-000-00----------------00-000-000-00-|

G|------------------------------------------------------------|
D|------------------------------------------------------------|
A|------------------------------0~--0~-------0~--0~-----------|
D|--44-444-444-44-00-000-000-00-------4~--0~--------4~--0~----|


| /  slide up
| \  slide down
| h  hammer-on
| p  pull-off
| ~  vibrato
| +  harmonic
| x  Mute note
===============================================================================