The 77s - Rocks In Your Head Chords & Tabs

 

Rocks In Your Head Chords & Tabs

The 77s Chords & Tabs

Version: 1 Type: Tab 0 ratings
1 star 2 stars 3 stars 4 stars 5 stars
comments

Rocks In Your Head Tab

   
The 77's are a Sacramento California based band that has been playing and recording
since 1982, thier first name was The Scratch Band.....more on them at www.77s.com	


	     Rocks In Your Head - The 77's
-------------------------------------------------------------------------------
Tabbed by: Alex Hernandez *sevens*
Email: jimsonweed@gmail.com
Tuning: Drop D

intro:
e|-x-x-x-x-0--x--x-x-x-x-0--x--x-x-x-x-0--x-x-x-x-x--------------------------|
B|-2-2-2-2-3~-0--2-2-2-2-3~-0--2-2-2-2-3~-0-2-0-0-0--------------------------|
G|-2-2-2-2-2--2--2-2-2-2-2--2--2-2-2-2-2--2-2-2-0-2--------------------------|
D|-2-2-2-2-2--2--2-2-2-2-2--2--2-2-2-2-2--2-2-2-2-2--------------------------|
A|-x-x-x-x-x--x--x-x-x-x-x--x--x-x-x-x-x--x-x-x-x-x--------------------------|
D|-x-x-x-x-x--x--x-x-x-x-x--x--x-x-x-x-x--x-x-x-x-x--------------------------|
[ Tab from: http://www.guitartabs.cc/tabs/t/the_77s/rocks_in_your_head_tab.html ]
e|-x-x-x-x-0--x--x-x-x-x-0--x--x-x-x-x-0--x-x-x-x-x--------------------------|
B|-2-2-2-2-3~-0--2-2-2-2-3~-0--2-2-2-2-3~-0-2-0-0-0--------------------------|
G|-2-2-2-2-2--2--2-2-2-2-2--2--2-2-2-2-2--2-2-2-0-2--------------------------|
D|-2-2-2-2-2--2--2-2-2-2-2--2--2-2-2-2-2--2-2-2-2-2--------------------------|
A|-x-x-x-x-x--x--x-x-x-x-x--x--x-x-x-x-x--x-x-x-x-x--------------------------|
D|-x-x-x-x-x--x--x-x-x-x-x--x--x-x-x-x-x--x-x-x-x-x--------------------------|
   Let me make no.......
e|-x-x-x-x-0--x--x-x-x-x-0--x------------------------------------------------|
B|-2-2-2-2-3~-0--2-2-2-2-3~-0------------------------------------------------|
G|-2-2-2-2-2--2--2-2-2-2-2--2------------------------------------------------|
D|-2-2-2-2-2--2--2-2-2-2-2--2------------------------------------------------|
A|-x-x-x-x-x--x--x-x-x-x-x--x------------------------------------------------|
D|-x-x-x-x-x--x--x-x-x-x-x--x------------------------------------------------|
   You ain't jumpin'.....
e|-x-x-x-x-0--x-x-
x-x-x------------------------------------------------------|
B|-2-2-2-2-3~-0-2-0-0-0------------------------------------------------------|
G|-2-2-2-2-2--2-2-2-0-2------------------------------------------------------|
D|-2-2-2-2-2--2-2-2-2-2------------------------------------------------------|
A|-x-x-x-x-x--x-x-x-x-x------------------------------------------------------|
D|-x-x-x-x-x--x-x-x-x-x------------------------------------------------------|
   You play dirty.....with your dirty....
e|-x-x-x-x-0--x--x-x-x-x-0--x------------------------------------------------|
B|-2-2-2-2-3~-0--2-2-2-2-3~-0------------------------------------------------|
G|-2-2-2-2-2--2--2-2-2-2-2--2------------------------------------------------|
D|-2-2-2-2-2--2--2-2-2-2-2--2------------------------------------------------|
A|-x-x-x-x-x--x--x-x-x-x-x--x------------------------------------------------|
D|-x-x-x-x-x--x--x-x-x-x-x--x------------------------------------------------|
   But I got bigger......
e|-x-x-x-x-0--x-x-x-x-x------------------------------------------------------|
B|-2-2-2-2-3~-0-2-0-0-0------------------------------------------------------|
G|-2-2-2-2-2--2-2-2-0-2------------------------------------------------------|
D|-2-2-2-2-2--2-2-2-2-2------------------------------------------------------|
A|-x-x-x-x-x--x-x-x-x-x------------------------------------------------------|
D|-x-x-x-x-x--x-x-x-x-x------------------------------------------------------|
   I got bigger plans.....
e|-x-0-x-x-------------------------------------------------------------------|
B|-2-3-0-2-------------------------------------------------------------------|
G|-2-2-2-2-------------------------------------------------------------------|
D|-2-2-2-2-------------------------------------------------------------------|
A|-x-x-x-x-------------------------------------------------------------------|
D|-x-x-x-x-------------------------------------------------------------------|
   yeah, yeah, yeah......
e|-x-x-x-x---------x-x-x-x---------x-x-x-x--------x-x-x-x--------------------|
B|-x-x-x-x---------x-x-x-x---------x-x-x-x--------x-x-x-x---this part is-----|
G|-7-7-7-7---------7-7-7-7---------7-7-7-7--------7-7-7-7-supported by the---|
D|-7-7-7-7---------7-7-7-7---------7-7-7-7--------7-7-7-7--bass line heavily-|
A|-0-0-0-0--5-6-7--0-0-0-0--5-6-7--0-0-0-0-5-6-7--0-0-0-0--------------------|
D|-0-0-0-0--5-6-7--0-0-0-0--5-6-7--0-0-0-0-5-6-7--0-0-0-0-5-6-7--------------|
   Can't you hear your.....
e|-x-x-x-x-0--x--x-x-x-x-0--x------------------------------------------------|
B|-2-2-2-2-3~-0--2-2-2-2-3~-0------------------------------------------------|
G|-2-2-2-2-2--2--2-2-2-2-2--2------------------------------------------------|
D|-2-2-2-2-2--2--2-2-2-2-2--2------------------------------------------------|
A|-0-0-0-0-0--0--0-0-0-0-0--0------------------------------------------------|
D|-0-0-0-0-0--0--0-0-0-0-0--0------------------------------------------------|
   I can hear your.....
e|-x-x-x-x-0--x-x-x-x-x------------------------------------------------------|
B|-2-2-2-2-3~-0-2-0-0-0------------------------------------------------------|
G|-2-2-2-2-2--2-2-2-0-2------------------------------------------------------|
D|-2-2-2-2-2--2-2-2-2-2------------------------------------------------------|
A|-0-0-0-0-0--0-0-0-0-0------------------------------------------------------|
D|-0-0-0-0-0--0-0-0-0-0------------------------------------------------------|
   Know I'm gonna......I know they....
e|-x-x-x-x-0--x--x-x-x-x-0--x------------------------------------------------|
B|-2-2-2-2-3~-0--2-2-2-2-3~-0------------------------------------------------|
G|-2-2-2-2-2--2--2-2-2-2-2--2------------------------------------------------|
D|-2-2-2-2-2--2--2-2-2-2-2--2------------------------------------------------|
A|-0-0-0-0-0--0--0-0-0-0-0--0------------------------------------------------|
D|-0-0-0-0-0--0--0-0-0-0-0--0------------------------------------------------|
   I disapprove......
e|-x-x-x-x-0--x-x-x-x-x------------------------------------------------------|
B|-2-2-2-2-3~-0-2-0-0-0------------------------------------------------------|
G|-2-2-2-2-2--2-2-2-0-2------------------------------------------------------|
D|-2-2-2-2-2--2-2-2-2-2------------------------------------------------------|
A|-0-0-0-0-0--0-0-0-0-0------------------------------------------------------|
D|-0-0-0-0-0--0-0-0-0-0------------------------------------------------------|
   Me I disapprove.....
e|-x-0-x-x-------------------------------------------------------------------|
B|-2-3-0-2-------------------------------------------------------------------|
G|-2-2-2-2-------------------------------------------------------------------|
D|-2-2-2-2-------------------------------------------------------------------|
A|-0-0-0-0-------------------------------------------------------------------|
D|-0-0-0-0-------------------------------------------------------------------|
   yeah, yeah........I ain't gonna....Don't believe.....
e|-x-x-x-x---------x-x-x-x---------x-x-x-x--------x-x-x-x--------------------|
B|-x-x-x-x---------x-x-x-x---------x-x-x-x--------x-x-x-x--------------------|
G|-7-7-7-7---------7-7-7-7---------7-7-7-7--------7-7-7-7--------------------|
D|-7-7-7-7---------7-7-7-7---------7-7-7-7--------7-7-7-7--------------------|
A|-0-0-0-0--5-6-7--0-0-0-0--5-6-7--0-0-0-0-5-6-7--0-0-0-0-5-6-7--------------|
D|-0-0-0-0--5-6-7--0-0-0-0--5-6-7--0-0-0-0-5-6-7--0-0-0-0-5-6-7--------------|
   a word that...  'Cuz there's rocks..............Alright
e|-x-x-x-x---------x-x-x-x---------x-x-x-x--------x-x-x-x-x-x----------------|
B|-x-x-x-x---------x-x-x-x---------x-x-x-x--------x-x-x-x-x-x----------------|
G|-7-7-7-7---------7-7-7-7---------7-7-7-7--------7-7-7-7-7-7----------------|
D|-7-7-7-7---------7-7-7-7---------7-7-7-7--------7-7-7-7-7-7----------------|
A|-0-0-0-0--5-6-7--0-0-0-0--5-6-7--0-0-0-0-5-6-7--0-0-0-0-0-0----------------|
D|-0-0-0-0--5-6-7--0-0-0-0--5-6-7--0-0-0-0-5-6-7--0-0-0-0-0-0----------------|
   Lead guitar:
e|---------------------------------------------------------------------------|
B|------------3--------------------------------------------------------------|
G|-2-5-2--2-5---2-5-5--2-5-p2-p0--Repeat this riff 4 times-------------------|
D|---------------------------------------------------------------------------|
A|---------------------------------------------------------------------------|
D|---------------------------------------------------------------------------|
break:
e|-x-x-x-x-0--x--x-x-x-x-0--x--x-x-x-x-0--x-x-x-x-x--------------------------|
B|-2-2-2-2-3~-0--2-2-2-2-3~-0--2-2-2-2-3~-0-2-0-0-0--------------------------|
G|-2-2-2-2-2--2--2-2-2-2-2--2--2-2-2-2-2--2-2-2-0-2--------------------------|
D|-2-2-2-2-2--2--2-2-2-2-2--2--2-2-2-2-2--2-2-2-2-2--------------------------|
A|-x-x-x-x-x--x--x-x-x-x-x--x--x-x-x-x-x--x-x-x-x-x--------------------------|
D|-x-x-x-x-x--x--x-x-x-x-x--x--x-x-x-x-x--x-x-x-x-x--------------------------|

e|-x-x-x-x-0--x--x-x-x-x-0--x--x-x-x-x-0--x-x-x-x-x--------------------------|
B|-2-2-2-2-3~-0--2-2-2-2-3~-0--2-2-2-2-3~-0-2-0-0-0--------------------------|
G|-2-2-2-2-2--2--2-2-2-2-2--2--2-2-2-2-2--2-2-2-0-2--------------------------|
D|-2-2-2-2-2--2--2-2-2-2-2--2--2-2-2-2-2--2-2-2-2-2--------------------------|
A|-x-x-x-x-x--x--x-x-x-x-x--x--x-x-x-x-x--x-x-x-x-x--------------------------|
D|-x-x-x-x-x--x--x-x-x-x-x--x--x-x-x-x-x--x-x-x-x-x--------------------------|
The rest of the song follows the same pattern pretty much.......just listen to
the CD for the patterns......there is one part with a few more riffs in it....
when I get more time I'll try and tab those out as well.....enjoy!!



| /  slide up
| \  slide down
| h  hammer-on
| p  pull-off
| ~  vibrato
| +  harmonic
| x  Mute note
Comments