That Dog - To Keep Me Chords & Tabs

 

To Keep Me Chords & Tabs

That Dog Chords & Tabs

Version: 1 Type: Tab 0 ratings
1 star 2 stars 3 stars 4 stars 5 stars
comments

To Keep Me Tab

that dog - to keep me

Submitted by: Alex Getts. None of this is my own work, Kudos to those that transcribed this.
I am only responsible for submitting this.

transcribed by: aaron wilson (amiloudenough@hotmail.com)

Guitar
Open E Tuning

E ||-------------------------------------|-----------------------------------||
B ||---0----0--0--0--0--0----0--0--0--0--|--0----0--0--0--0--0----0----0-----||
G#||*--0----0--0--0--0--0----0--0--0--0--|--0----0--0--0--0--0----0----0----*||
E ||*--0----0--0--0--0--0----0--0--0--0--|--0----0--0--0--0--0----0----0----*||
B ||---0----0--0--0--0--9----9--9--9--9--|--0----0--0--0--0--6----6----6-----||
E ||---0----0--0--0--0--9----9--9--9--9--|--0----0--0--0--0--6----6----6-----||


[ Tab from: http://www.guitartabs.cc/tabs/t/that_dog/to_keep_me_tab.html ]
-------------------------------------|-----------------------------------||
---0----0--0--0--0--0----0--0--0--0--|--0----0--0--0--0--0----0----0-----||
*--0----0--0--0--0--0----0--0--0--0--|--0----0--0--0--0--0----0----0----*||
*--0----0--0--0--0--0----0--0--0--0--|--0----0--0--0--0--0----0----0----*||
---0----0--0--0--0--9----9--9--9--9--|--0----0--0--0--0--6----6----6-----||
---0----0--0--0--0--9----9--9--9--9--|--0----0--0--0--0--6----6----6-----||



--------------------------------------||------------------------------------||
---0----0--0--0--0--0----0--0--0--0---||--0----0--0--0--0--0----0--0--0--0--||
*--0----0--0--0--0--0----0--0--0--0--*||--0----0--0--0--0--0----0--0--0--0--||
*--0----0--0--0--0--0----0--0--0--0--*||--0----0--0--0--0--0----0--0--0--0--||
---5----5--5--5--5--2----2--2--2--2---||--5----5--5--5--5--6----6--6--6--6--||
---5----5--5--5--5--2----2--2--2--2---||--5----5--5--5--5--6----6--6--6--6--||

http://www.stopforthatdog.com
http://thatdog.net
http://www.annawaronker.com
Comments