That Dog - Side Part Chords & Tabs

 

Side Part Chords & Tabs

That Dog Chords & Tabs

Version: 1 Type: Tab 0 ratings
1 star 2 stars 3 stars 4 stars 5 stars
comments

Side Part Tab

that dog - side part

Submitted by: Alex Getts. None of this is my own work, Kudos to those that transcribed this.
I am only responsible for submitting this.

transcribed by: aaron wilson (amiloudenough@hotmail.com)

Guitar
Tuning: EADGDG (Tune top 2 strings up 1 1/2 steps)

G||----------------------------||---------------------------|
D||----------------------------||---------------------------|
G||*--------------------------*||*--------------------------|
D||*--------------------------*||*--------------------------|
A||---5--5--5--5--5--5--5--5---||---5--5--5--5--5--5--5--5--|
E||---3--3--3--3--3--3--3--3---||---3--3--3--3--3--3--3--3--|


                                2x                                                          
--------------------------------||--------0-------------0-------|--------------------------|
--------------------------------||--------0-------------0-------|--------------------------|
-------------------------------*||--------7-------------0-------|--------------------------|
-------------------------------*||--------8-------------10------|--------------------------|
--9--9--9--10--10--10--10--10---||--8--8--8--8/-10--10--10--10--|--5--5--5--5--5--5--5--5--|
--7--7--7--8---8---8---8---8----||--6--6--6--6/-8---8---8---8---|--3--3--3--3--3--3--3--3--|

[ Tab from: http://www.guitartabs.cc/tabs/t/that_dog/side_part_tab.html ]
                                                                        2x
|-----------------------------------|-----------------------------------||
|---0---0---0---0---0---0---0---0---|--0---0---0---0---0---0---0---0----||
|*--0---0---0---0---0---0---0---0---|--0---0---0---0---0---0---0---0---*||
|*--10--10--10--10--10--10--10--10--|--0---0---0---0---0---0---0---0---*||
|---10--10--10--10--10--10--10--10--|--15--15--15--15--15--15--15--15---||
|---8---8---8---8---8---8---8---8---|--14--14--14--14--14--14--14--14---||


                                                                                         
--------0-------------0-------|--------------------------|--------0-------------0-------|
--0--0--0--0--0---0---0---0---|--0--0--0--0--0--0--0--0--|--0--0--0--0--0---0---0---0---|
--7--7--7--7--0---0---0---0---|--4--4--4--4--4--4--4--4--|--7--7--7--7--0---0---0---0---|
--8--8--8--8/-10--10--10--10--|--5--5--5--5--5--5--5--5--|--8--8--8--8/-10--10--10--10--|
--8--8--8--8/-10--10--10--10--|--5--5--5--5--5--5--5--5--|--8--8--8--8/-10--10--10--10--|
--6--6--6--6/-8---8---8---8---|--3--3--3--3--3--3--3--3--|--6--6--6--6/-8---8---8---8---|


                     
-------------------||
--0----------------||
--4----------------||
--5----------------||
--5----------------||
--3----------------||

http://www.stopforthatdog.com
http://thatdog.net
http://www.annawaronker.com
Comments