That Dog - She Doesnt Know How Chords & Tabs

 

She Doesnt Know How Chords & Tabs

That Dog Chords & Tabs

Version: 1 Type: Tab 0 ratings
1 star 2 stars 3 stars 4 stars 5 stars
comments

She Doesnt Know How Tab

that dog - she doesn't know how

Submitted by: Alex Getts. None of this is my own work, Kudos to those that transcribed this.
I am only responsible for submitting this.

transcribed by: aaron wilson (amiloudenough@hotmail.com)

Guitar
Open E Tuning

Got the basic parts here.  You should know the song enough
to figure out what goes where.


E ||--------------------||-----------------------------------|--------------------------|
B ||--------------------||-----------------------------------|--------------------------|
G#||*------------------*||*----------------------------------|--------------------------|
E ||*------------------*||*--0---0---0---0---0---0---0---0---|--0--0--0--0--0--0--0--0--|
B ||--------------------||---10--10--10--10--10--10--10--10--|--0--0--0--2--2--4--5--5--|
E ||--------------------||---10--10--10--10--10--10--10--10--|--0--0--0--2--2--4--5--5--|

[ Tab from: http://www.guitartabs.cc/tabs/t/that_dog/she_doesnt_know_how_tab.html ]
                                                                
----------------------------------|---------------------------||
----------------------------------|---------------------------||
----------------------------------|--------------------------*||
--0---0---0---0---0---0---0---0---|--0--0--0--0--0--0--0--0--*||
--9---10--10--9---9---10--10--9---|--0--0--0--5--5--5--5--5---||
--10--10--10--10--10--10--10--10--|--0--0--0--5--5--5--5--5---||


                                                                       
-----------------------------------|--0---0---0---0---0---0---0---0---|
-----------------------------------|--0---0---0---0---0---0---0---0---|
*--0---0---0---0---0---0---0---0---|--0---0---0---0---0---0---0---0---|
*--0---0---0---0---0---0---0---0---|--0---0---0---0---0---0---0---0---|
---9---9---9---9---9---9---9---9---|--10--10--10--10--10--10--10--10--|
---10--10--10--10--10--10--10--10--|--9---9---9---9---9---9---9---9---|


   Tremelo pick 7th fret, High-E string of 2nd guitar for last part        
||--0--0--0--0--0--0--0--0--|--0--0--0--0--0--0--0--0---||------------------||
||--0--0--0--0--0--0--0--0--|--0--0--0--0--0--0--0--0---||------------------||
||--0--0--0--0--0--0--0--0--|--0--0--0--0--0--0--0--0--*||------------------||
||--0--0--0--0--0--0--0--0--|--0--0--0--0--0--0--0--0--*||------------------||
||--5--5--5--5--5--2--2--2--|--5--5--5--5--5--2--2--2---||------------------||
||--5--5--5--5--5--2--2--2--|--5--5--5--5--5--2--2--2---||------------------||

http://www.stopforthatdog.com
http://thatdog.net
http://www.annawaronker.com
Comments