That Dog - Retreat From The Sun Chords & Tabs

 

Retreat From The Sun Chords & Tabs

That Dog Chords & Tabs

Version: 1 Type: Tab 0 ratings
1 star 2 stars 3 stars 4 stars 5 stars
comments

Retreat From The Sun Tab

that dog - retreat from the sun

Submitted by: Alex Getts. None of this is my own work, Kudos to those that transcribed this.
I am only responsible for submitting this.

transcribed by: aaron wilson (amiloudenough@hotmail.com)

Guitar 
Standard Tuning

E||--------------------------|--------------------------|--------------------------|
B||--------------------------|--------------------------|--------------------------|
G||--------------------------|--------------------------|--------------------------|
D||--6--6--6--6--6--6--6--6--|--5--5--5--6--6--6--6--6--|--8--8--8--8--8--8--8--8--|
A||--4--4--4--4--4--4--4--4--|--4--4--4--4--4--4--4--4--|--6--6--6--6--6--6--6--6--|
E||--------------------------|--------------------------|--------------------------|


                                                                                 
--------------------------|--------------------------|--------------------------|
--------------------------|--------------------------|--------------------------|
--------------------------|--------------------------|--------------------------|
--------------------------|--6--6--6--6--6--6--6--6--|--5--5--5--6--6--6--6--6--|
--6--6--6--6--6--6--6--6--|--4--4--4--4--4--4--4--4--|--4--4--4--4--4--4--4--4--|
--4--4--4--4--4--4--4--4--|--------------------------|--------------------------|


                                                                                 
--------------------------|--------------------------|--------------------------|
--------------------------|--------------------------|--------------------------|
--------------------------|--------------------------|--------------------------|
--8--8--8--8--8--8--8--8--|--------------------------|--6--6--6--6--6--6--6--6--|
--6--6--6--6--6--6--6--6--|--6--6--6--6--6--6--6--6--|--4--4--4--4--4--4--4--4--|
--------------------------|--4--4--4--4--4--4--4--4--|--------------------------|


                                                                                 
--------------------------|--------------------------|--------------------------|
--------------------------|--------------------------|--------------------------|
--------------------------|--------------------------|--------------------------|
--5--5--5--6--6--6--6--6--|--8--8--8--8--8--8--8--8--|--------------------------|
--4--4--4--4--4--4--4--4--|--6--6--6--6--6--6--6--6--|--6--6--6--6--6--6--6--6--|
--------------------------|--------------------------|--4--4--4--4--4--4--4--4--|


                                                                                 
--------------------------|--------------------------|--------------------------|
--------------------------|--------------------------|--------------------------|
--------------------------|--------------------------|--------------------------|
--6--6--6--6--6--6--6--6--|--5--5--5--6--6--6--6--6--|--8--8--8--8--8--8--8--8--|
--4--4--4--4--4--4--4--4--|--4--4--4--4--4--4--4--4--|--6--6--6--6--6--6--6--6--|
--------------------------|--------------------------|--------------------------|


                                                                                 
--------------------------|--------------------------|--------------------------|
--------------------------|--------------------------|--------------------------|
--------------------------|--------------------------|--------------------------|
--------------------------|--6--6--6--6--6--6--6--6--|--5--5--5--6--6--6--6--6--|
--6--6--6--6--6--6--6--6--|--4--4--4--4--4--4--4--4--|--4--4--4--4--4--4--4--4--|
--4--4--4--4--4--4--4--4--|--------------------------|--------------------------|


                                                                                 
--------------------------|--------------------------|--------------------------|
--------------------------|--------------------------|--------------------------|
--------------------------|--------------------------|--------------------------|
--8--8--8--8--8--8--8--8--|--------------------------|--6--6--6--6--6--6--6--6--|
--6--6--6--6--6--6--6--6--|--6--6--6--6--6--6--6--6--|--4--4--4--4--4--4--4--4--|
--------------------------|--4--4--4--4--4--4--4--4--|--------------------------|


                                                                                 
--------------------------|--------------------------|--------------------------|
--------------------------|--------------------------|--------------------------|
--------------------------|--------------------------|--------------------------|
--5--5--5--6--6--6--6--6--|--8--8--8--8--8--8--8--8--|--------------------------|
--4--4--4--4--4--4--4--4--|--6--6--6--6--6--6--6--6--|--6--6--6--6--6--6--6--6--|
--------------------------|--------------------------|--4--4--4--4--4--4--4--4--|


                                                                                 
--------------------------|--------------------------|--------------------------|
--------------------------|--------------------------|--------------------------|
--------------------------|--------------------------|--------------------------|
--6--6--6--6--6--6--6--6--|--5--5--5--6--6--6--6--6--|--8--8--8--8--8--8--8--8--|
--4--4--4--4--4--4--4--4--|--4--4--4--4--4--4--4--4--|--6--6--6--6--6--6--6--6--|
--------------------------|--------------------------|--------------------------|


                                                                                 
--------------------------|--------------------------|--------------------------|
--------------------------|--------------------------|--------------------------|
--------------------------|--------------------------|--------------------------|
--------------------------|--8--8--8--8--8--8--8--8--|--------------------------|
--6--6--6--6--6--6--6--6--|--6--6--6--6--6--6--6--6--|--6--6--6--6--6--6--6--6--|
--4--4--4--4--4--4--4--4--|--------------------------|--4--4--4--4--4--4--4--4--|


                                                                                 
--------------------------|--------------------------|--------------------------|
--------------------------|--------------------------|--------------------------|
--------------------------|--------------------------|--------------------------|
--6--6--6--6--6--6--6--6--|--5--5--5--6--6--6--6--6--|--8--8--8--8--8--8--8--8--|
--4--4--4--4--4--4--4--4--|--4--4--4--4--4--4--4--4--|--6--6--6--6--6--6--6--6--|
--------------------------|--------------------------|--------------------------|


                                                                                 
--------------------------|--------------------------|--------------------------|
--------------------------|--------------------------|--------------------------|
--------------------------|--------------------------|--------------------------|
--------------------------|--6--6--6--6--6--6--6--6--|--5--5--5--6--6--6--6--6--|
--6--6--6--6--6--6--6--6--|--4--4--4--4--4--4--4--4--|--4--4--4--4--4--4--4--4--|
--4--4--4--4--4--4--4--4--|--------------------------|--------------------------|


                                                                                 
--------------------------|--------------------------|--------------------------|
--------------------------|--------------------------|--------------------------|
--------------------------|--------------------------|--------------------------|
--8--8--8--8--8--8--8--8--|--------------------------|--6--6--6--6--6--6--6--6--|
--6--6--6--6--6--6--6--6--|--6--6--6--6--6--6--6--6--|--4--4--4--4--4--4--4--4--|
--------------------------|--4--4--4--4--4--4--4--4--|--------------------------|


                                                                                 
--------------------------|--------------------------|--------------------------|
--------------------------|--------------------------|--------------------------|
--------------------------|--------------------------|--------------------------|
--5--5--5--6--6--6--6--6--|--8--8--8--8--8--8--8--8--|--------------------------|
--4--4--4--4--4--4--4--4--|--6--6--6--6--6--6--6--6--|--6--6--6--6--6--6--6--6--|
--------------------------|--------------------------|--4--4--4--4--4--4--4--4--|


                                                                                 
--------------------------|--------------------------|--------------------------|
--------------------------|--------------------------|--------------------------|
--------------------------|--------------------------|--------------------------|
--6--6--6--6--6--6--6--6--|--5--5--5--6--6--6--6--6--|--8--8--8--8--8--8--8--8--|
--4--4--4--4--4--4--4--4--|--4--4--4--4--4--4--4--4--|--6--6--6--6--6--6--6--6--|
--------------------------|--------------------------|--------------------------|


                                                                                 
--------------------------|--------------------------|--------------------------|
--------------------------|--------------------------|--------------------------|
--------------------------|--------------------------|--------------------------|
--------------------------|--6--6--6--6--6--6--6--6--|--5--5--5--6--6--6--6--6--|
--6--6--6--6--6--6--6--6--|--4--4--4--4--4--4--4--4--|--4--4--4--4--4--4--4--4--|
--4--4--4--4--4--4--4--4--|--------------------------|--------------------------|


                                                                                 
--------------------------|--------------------------|--------------------------|
--------------------------|--------------------------|--------------------------|
--------------------------|--------------------------|--------------------------|
--8--8--8--8--8--8--8--8--|--------------------------|--6--6--6--6--6--6--6--6--|
--6--6--6--6--6--6--6--6--|--6--6--6--6--6--6--6--6--|--4--4--4--4--4--4--4--4--|
--------------------------|--4--4--4--4--4--4--4--4--|--------------------------|


                                                                                 
--------------------------|--------------------------|--------------------------|
--------------------------|--------------------------|--------------------------|
--------------------------|--------------------------|--------------------------|
--5--5--5--6--6--6--6--6--|--8--8--8--8--8--8--8--8--|--------------------------|
--4--4--4--4--4--4--4--4--|--6--6--6--6--6--6--6--6--|--6--6--6--6--6--6--6--6--|
--------------------------|--------------------------|--4--4--4--4--4--4--4--4--|


                                                                                 
--------------------------|--------------------------|--------------------------|
--------------------------|--------------------------|--------------------------|
--------------------------|--------------------------|--------------------------|
--8--8--8--8--8--8--8--8--|--------------------------|--6--6--6--6--6--6--6--6--|
--6--6--6--6--6--6--6--6--|--6--6--6--6--6--6--6--6--|--4--4--4--4--4--4--4--4--|
--------------------------|--4--4--4--4--4--4--4--4--|--------------------------|

[ Tab from: http://www.guitartabs.cc/tabs/t/that_dog/retreat_from_the_sun_tab.html ]
                                                                                 
--------------------------|--------------------------|--------------------------|
--------------------------|--------------------------|--------------------------|
--------------------------|--------------------------|--------------------------|
--5--5--5--6--6--6--6--6--|--8--8--8--8--8--8--8--8--|--------------------------|
--4--4--4--4--4--4--4--4--|--6--6--6--6--6--6--6--6--|--6--6--6--6--6--6--6--6--|
--------------------------|--------------------------|--4--4--4--4--4--4--4--4--|


                                                                                 
--------------------------|--------------------------|--------------------------|
--------------------------|--------------------------|--------------------------|
--------------------------|--------------------------|--------------------------|
--6--6--6--6--6--6--6--6--|--6--6--6--6--6--6--6--6--|--6--6--6--6--6--6--6--6--|
--4--4--4--4--4--4--4--4--|--4--4--4--4--4--4--4--4--|--4--4--4--4--4--4--4--4--|
--------------------------|--------------------------|--------------------------|


                                                                                 
--------------------------|--------------------------|--------------------------|
--------------------------|--------------------------|--------------------------|
--------------------------|--------------------------|--------------------------|
--6--6--6--6--6--6--6--6--|--5--5--5--5--5--5--5--5--|--5--5--5--5--5--5--5--5--|
--4--4--4--4--4--4--4--4--|--6--6--6--6--6--6--6--6--|--6--6--6--6--6--6--6--6--|
--------------------------|--------------------------|--------------------------|


                                                                                 
--------------------------|--------------------------|--------------------------|
--------------------------|--------------------------|--------------------------|
--------------------------|--------------------------|--------------------------|
--6--6--6--6--6--6--6--6--|--6--6--6--6--6--6--6--6--|--6--6--6--6--6--6--6--6--|
--6--6--6--6--6--6--6--6--|--6--6--6--6--6--6--6--6--|--4--4--4--4--4--4--4--4--|
--4--4--4--4--4--4--4--4--|--4--4--4--4--4--4--4--4--|--------------------------|


                                                                                 
--------------------------|--------------------------|--------------------------|
--------------------------|--------------------------|--------------------------|
--------------------------|--------------------------|--------------------------|
--6--6--6--6--6--6--6--6--|--5--5--5--5--5--5--5--5--|--5--5--5--5--5--5--5--5--|
--4--4--4--4--4--4--4--4--|--6--6--6--6--6--6--6--6--|--6--6--6--6--6--6--6--6--|
--------------------------|--------------------------|--------------------------|


                                                                                 
--------------------------|--------------------------|--------------------------|
--------------------------|--------------------------|--------------------------|
--------------------------|--------------------------|--------------------------|
--6--6--6--6--6--6--6--6--|--6--6--6--6--6--6--6--6--|--6--6--6--6--6--6--6--6--|
--6--6--6--6--6--6--6--6--|--6--6--6--6--6--6--6--6--|--6--6--6--6--6--6--6--6--|
--4--4--4--4--4--4--4--4--|--4--4--4--4--4--4--4--4--|--4--4--4--4--4--4--4--4--|


                                                                                 
--------------------------|--------------------------|--------------------------|
--------------------------|--------------------------|--------------------------|
--------------------------|--------------------------|--------------------------|
--6--6--6--6--6--6--6--6--|--8--8--8--8--8--8--8--8--|--------------------------|
--6--6--6--6--6--6--6--6--|--6--6--6--6--6--6--6--6--|--6--6--6--6--6--6--6--6--|
--4--4--4--4--4--4--4--4--|--------------------------|--4--4--4--4--4--4--4--4--|


                                                                                 
--------------------------|--------------------------|--------------------------|
--------------------------|--------------------------|--------------------------|
--------------------------|--------------------------|--------------------------|
--6--6--6--6--6--6--6--6--|--5--5--5--6--6--6--6--6--|--8--8--8--8--8--8--8--8--|
--4--4--4--4--4--4--4--4--|--4--4--4--4--4--4--4--4--|--6--6--6--6--6--6--6--6--|
--------------------------|--------------------------|--------------------------|


                                                                                 
--------------------------|--------------------------|--------------------------|
--------------------------|--------------------------|--------------------------|
--------------------------|--------------------------|--------------------------|
--------------------------|--6--6--6--6--6--6--6--6--|--5--5--5--6--6--6--6--6--|
--6--6--6--6--6--6--6--6--|--4--4--4--4--4--4--4--4--|--4--4--4--4--4--4--4--4--|
--4--4--4--4--4--4--4--4--|--------------------------|--------------------------|


                                                                                 
--------------------------|--------------------------|--------------------------|
--------------------------|--------------------------|--------------------------|
--------------------------|--------------------------|--------------------------|
--8--8--8--8--8--8--8--8--|--------------------------|--6--6--6--6--6--6--6--6--|
--6--6--6--6--6--6--6--6--|--6--6--6--6--6--6--6--6--|--4--4--4--4--4--4--4--4--|
--------------------------|--4--4--4--4--4--4--4--4--|--------------------------|


                                                                                 
--------------------------|--------------------------|--------------------------|
--------------------------|--------------------------|--------------------------|
--------------------------|--------------------------|--------------------------|
--5--5--5--6--6--6--6--6--|--8--8--8--8--8--8--8--8--|--------------------------|
--4--4--4--4--4--4--4--4--|--6--6--6--6--6--6--6--6--|--6--6--6--6--6--6--6--6--|
--------------------------|--------------------------|--4--4--4--4--4--4--4--4--|


                                                                                 
--------------------------|--------------------------|--------------------------|
--------------------------|--------------------------|--------------------------|
--------------------------|--------------------------|--------------------------|
--6--6--6--6--6--6--6--6--|--5--5--5--6--6--6--6--6--|--8--8--8--8--8--8--8--8--|
--4--4--4--4--4--4--4--4--|--4--4--4--4--4--4--4--4--|--6--6--6--6--6--6--6--6--|
--------------------------|--------------------------|--------------------------|


                                                                                 
--------------------------|--------------------------|--------------------------|
--------------------------|--------------------------|--------------------------|
--------------------------|--------------------------|--------------------------|
--------------------------|--6--6--6--6--6--6--6--6--|--5--5--5--6--6--6--6--6--|
--6--6--6--6--6--6--6--6--|--4--4--4--4--4--4--4--4--|--4--4--4--4--4--4--4--4--|
--4--4--4--4--4--4--4--4--|--------------------------|--------------------------|


                                                                                 
--------------------------|--------------------------|--------------------------|
--------------------------|--------------------------|--------------------------|
--------------------------|--------------------------|--------------------------|
--8--8--8--8--8--8--8--8--|--------------------------|--6--6--6--6--6--6--6--6--|
--6--6--6--6--6--6--6--6--|--6--6--6--6--6--6--6--6--|--4--4--4--4--4--4--4--4--|
--------------------------|--4--4--4--4--4--4--4--4--|--------------------------|


                                                                                 
--------------------------|--------------------------|--------------------------|
--------------------------|--------------------------|--------------------------|
--------------------------|--------------------------|--------------------------|
--5--5--5--6--6--6--6--6--|--8--8--8--8--8--8--8--8--|--------------------------|
--4--4--4--4--4--4--4--4--|--6--6--6--6--6--6--6--6--|--6--6--6--6--6--6--6--6--|
--------------------------|--------------------------|--4--4--4--4--4--4--4--4--|


                                                                                 
--------------------------|--------------------------|--------------------------|
--------------------------|--------------------------|--------------------------|
--------------------------|--------------------------|--------------------------|
--6--6--6--6--6--6--6--6--|--5--5--5--6--6--6--6--6--|--8--8--8--8--8--8--8--8--|
--4--4--4--4--4--4--4--4--|--4--4--4--4--4--4--4--4--|--6--6--6--6--6--6--6--6--|
--------------------------|--------------------------|--------------------------|


                                                                                 
--------------------------|--------------------------|--------------------------|
--------------------------|--------------------------|--------------------------|
--------------------------|--------------------------|--------------------------|
--------------------------|--6--6--6--6--6--6--6--6--|--5--5--5--6--6--6--6--6--|
--6--6--6--6--6--6--6--6--|--4--4--4--4--4--4--4--4--|--4--4--4--4--4--4--4--4--|
--4--4--4--4--4--4--4--4--|--------------------------|--------------------------|


                                                                                 
--------------------------|--------------------------|--------------------------|
--------------------------|--------------------------|--------------------------|
--------------------------|--------------------------|--------------------------|
--8--8--8--8--8--8--8--8--|--------------------------|--6--6--6--6--6--6--6--6--|
--6--6--6--6--6--6--6--6--|--6--6--6--6--6--6--6--6--|--4--4--4--4--4--4--4--4--|
--------------------------|--4--4--4--4--4--4--4--4--|--------------------------|


                                                                                 
--------------------------|--------------------------|--------------------------|
--------------------------|--------------------------|--------------------------|
--------------------------|--------------------------|--------------------------|
--5--5--5--6--6--6--6--6--|--8--8--8--8--8--8--8--8--|--------------------------|
--4--4--4--4--4--4--4--4--|--6--6--6--6--6--6--6--6--|--6--6--6--6--6--6--6--6--|
--------------------------|--------------------------|--4--4--4--4--4--4--4--4--|


                                                                           
--------------------------|--------------------------|--------------------|
--------------------------|--------------------------|--14----------------|
--------------------------|--------------------------|--13----------------|
--6--6--6--6--6--6--6--6--|--5--5--5--6--6--6--6--6--|--13----------------|
--4--4--4--4--4--4--4--4--|--4--4--4--4--4--4--4--4--|--13----------------|
--------------------------|--------------------------|--11----------------|


                                                             
--4----------------|--9-----------------|------------------||
--4----------------|--9-----------------|------------------||
--5----------------|--10----------------|------------------||
--6----------------|--11----------------|------------------||
--6----------------|--11----------------|------------------||
--4----------------|--9-----------------|------------------||

http://www.stopforthatdog.com
http://thatdog.net
http://www.annawaronker.com
Comments