That Dog - Raina Chords & Tabs

 

Raina Chords & Tabs

That Dog Chords & Tabs

Version: 1 Type: Bass Tab 0 ratings
1 star 2 stars 3 stars 4 stars 5 stars
comments

Raina Bass Tab

that dog - raina

Submitted by: Alex Getts. None of this is my own work, Kudos to those that transcribed this.
I am only responsible for submitting this.

transcribed by: aaron wilson (amiloudenough@hotmail.com)

Bass
Standard Tuning

   Slow
G||------------------|------------------|------------------|------------------|
D||------------------|------------------|------------------|------------------|
A||------------------|------------------|------------------|------------------|
E||------------------|------------------|------------------|------------------|


                                                                            
------------------|------------------|------------------|------------------|
------------------|------------------|------------------|------------------|
------------------|------------------|------------------|------------------|
------------------|------------------|------------------|------------------|


                                                                            
------------------|------------------|------------------|------------------|
------------------|------------------|------------------|------------------|
------------------|------------------|------------------|------------------|
------------------|------------------|------------------|------------------|


                                                                            
------------------|------------------|------------------|------------------|
------------------|------------------|------------------|------------------|
------------------|------------------|------------------|------------------|
------------------|------------------|------------------|------------------|


                                                                            
------------------|------------------|------------------|------------------|
------------------|------------------|------------------|------------------|
------------------|------------------|------------------|------------------|
------------------|------------------|------------------|------------------|


                                                                            
------------------|------------------|------------------|------------------|
------------------|------------------|------------------|------------------|
------------------|------------------|------------------|------------------|
------------------|------------------|------------------|------------------|


                                                                            
------------------|------------------|------------------|------------------|
------------------|------------------|------------------|------------------|
------------------|------------------|------------------|------------------|
------------------|------------------|------------------|------------------|


                                       Faster                                                 
------------------|------------------|------------------------|------------------------|
------------------|------------------|------------------------|------------------------|
------------------|------------------|------------------------|------------------------|
------------------|------------------|--7--7--7----4--4--4----|--2--2--2--2----2--2----|

[ Tab from: http://www.guitartabs.cc/tabs/t/that_dog/raina_btab.html ]
                                                                           
------------------------|------------------------|------------------------|
------------------------|------------------------|------------------------|
------------------------|------------------------|------------------------|
--7--7--7----4--4--4----|--2--2--2--2----2--2----|--7--7--7----4--4--4----|


                                                                           
------------------------|------------------------|------------------------|
------------------------|------------------------|------------------------|
------------------------|------------------------|------------------------|
--2--2--2--2----2--2----|--7--7--7----4--4--4----|--2--2--2--2----2--2----|


                                                                           
------------------------|------------------------|------------------------|
------------------------|------------------------|------------------------|
------------------------|------------------------|------------------------|
--7--7--7----4--4--4----|--2--2--2--2----2--2----|--7--7--7----4--4--4----|


                                                                             
------------------------|------------------------|--------------------------|
------------------------|------------------------|--------------------------|
------------------------|------------------------|--------------------------|
--2--2--2--2----2--2----|--5--5--5----4--4--4----|--2--2--2--2--2--2--2--2--|


                                                                            
--------------------------|----------------------|-------------------------|
--------------------------|----------------------|-------------------------|
--------------------------|----------------------|-------------------------|
--2--2--2--2--2--2--2--2--|--2--2------3--3------|--7--7--7--5----5--5--5--|


                                                                            
----------------------|-------------------------|--------------------------|
----------------------|-------------------------|--------------------------|
----------------------|-------------------------|--------------------------|
--2--2------3--3------|--7--7--7--5----5--5--5--|--3--3--3--3--2--2--2--2--|


                                                                                 
--------------------------|--------------------------|--------------------------|
--------------------------|--------------------------|--------------------------|
--------------------------|--------------------------|--------------------------|
--0--0--0--0--0--0--0--2--|--3--3--3--3--2--2--2--2--|--0--0--0--0--2--2--2--2--|


                                                                            
------------------------|-------------------------|------------------------|
------------------------|-------------------------|------------------------|
------------------------|-------------------------|------------------------|
--7--7--7----4--4--4----|--2--2--2--2--2--2--2----|--7--7--7----4--4--4----|


                                                                             
-------------------------|------------------------|-------------------------|
-------------------------|------------------------|-------------------------|
-------------------------|------------------------|-------------------------|
--2--2--2--2--2--2--2----|--7--7--7----4--4--4----|--2--2--2--2--2--2--2----|


                                                                                            
------------------------|-------------------------|--------------------|-------------------|
------------------------|-------------------------|--------------------|-------------------|
------------------------|-------------------------|--------------------|-------------------|
--7--7--7----4--4--4----|--2--2--2--2--2--2--2----|--5--------4--------|--2----------------|


http://www.stopforthatdog.com
http://thatdog.net
http://www.annawaronker.com
Comments