That Dog - One Summer Night Chords & Tabs

 

One Summer Night Chords & Tabs

That Dog Chords & Tabs

Version: 1 Type: Bass Tab 0 ratings
1 star 2 stars 3 stars 4 stars 5 stars
comments

One Summer Night Bass Tab

that dog - one summer night

Submitted by: Alex Getts. None of this is my own work, Kudos to those that transcribed this.
I am only responsible for submitting this.

transcribed by: aaron wilson (amiloudenough@hotmail.com)

Bass
Standard Tuning

G||--------------------------|--------------------------|--------------------------|
D||--------------------------|--------------------------|--------------------------|
A||--5--5--5--5--5--5--5--5--|--------------------------|--5--5--5--5--5--5--5--5--|
E||--------------------------|--2--2--2--6--6--6--6--6--|--------------------------|


                                                                                   
--------------------------||---------------------------|--------------------------|
--------------------------||*--------------------------|--------------------------|
--------------------------||*--5--5--5--5--5--5--5--5--|--------------------------|
--2--2--2--6--6--6--6--6--||---------------------------|--2--2--2--6--6--6--6--6--|


                                                                                 
--------------------------|--------------------------|--------------------------|
--------------------------|--------------------------|--------------------------|
--5--5--5--5--5--5--5--5--|--------------------------|--5--5--5--5--5--5--5--5--|
--------------------------|--2--2--2--6--6--6--6--6--|--------------------------|


                                                                                   
--------------------------|--------------------------|---------------------------||
--------------------------|--------------------------|--------------------------*||
--------------------------|--------------------------|--------------------------*||
--2--2--2--6--6--6--6--6--|--7--7--7--7--7--7--7--7--|--2--2--2--2--2--2--2--2---||


                                    3x                                            
------------||----------------------||--------------------||---------------------|
------------||*--------------------*||--------------------||*--------------------|
------------||*--------------------*||--------------------||*--------------------|
--2----2----||---4--------4---------||--7--------7--------||---4--------4--------|


                                                                           
---------------------||----------------------||---------------------------|
--------------------*||*--------------------*||*--------------------------|
--------------------*||*--------------------*||*--5--5--5--5--5--5--5--5--|
--7--------7---------||---2--------2---------||---------------------------|


                                                                                 
--------------------------|--------------------------|--------------------------|
--------------------------|--------------------------|--------------------------|
--------------------------|--5--5--5--5--5--5--5--5--|--------------------------|
--2--2--2--6--6--6--6--6--|--------------------------|--2--2--2--6--6--6--6--6--|


                                                                                 
--------------------------|--------------------------|--------------------------|
--------------------------|--------------------------|--------------------------|
--5--5--5--5--5--5--5--5--|--------------------------|--------------------------|
--------------------------|--2--2--2--6--6--6--6--6--|--7--7--7--7--7--7--7--7--|

[ Tab from: http://www.guitartabs.cc/tabs/t/that_dog/one_summer_night_btab.html ]
                                                                 3x                       
---------------------------||------------||----------------------||----------------------|
--------------------------*||------------||*--------------------*||----------------------|
--------------------------*||------------||*--------------------*||------------9---------|
--2--2--2--2--2--2--2--2---||--2----2----||---4--------4---------||--7----7---------7----|


                                                                     
----------------------|----------------------|----------------------|
----------------------|----------------------|----------------------|
------------6---------|------------9---------|------------6---------|
--4----4---------4----|--7----7---------7----|--4----4---------4----|


                                                                                       
------------------------|-------------------|------------------|----------11----10----|
------------------------|-------------------|------------------|----------------------|
-------9----9--11--9----|-------------------|------------------|----------------------|
--7---------------------|--2----------------|------------------|----------------------|


                                                                                          
----------11----6----|----------11----10----|----------11----6----|----------11----10----|
---------------------|----------------------|---------------------|----------------------|
---------------------|----------------------|---------------------|----------------------|
---------------------|----------------------|---------------------|----------------------|


                                                                                        
----------11----6----|-------------------|------------6----8----|----------15----13----|
---------------------|--------------9----|--8----9--------------|----------16----15----|
---------------------|-------------------|----------------------|----------------------|
---------------------|-------------------|----------------------|----------------------|


                                                                                            
----------15----11----|----------15----13----|----------15----11----|----------15----13----|
----------13----11----|----------16----15----|----------13----11----|----------16----15----|
----------------------|----------------------|----------------------|----------------------|
----------------------|----------------------|----------------------|----------------------|


                                                                                         
----------15----11----|-------------------|----------6------8----|----------11----10----|
----------13----11----|--------------9----|--8--9----------------|----------------------|
----------------------|-------------------|----------------------|----------------------|
----------------------|-------------------|----------------------|----------------------|


                                                                                        
----------11----6----|----------11----10----|----------11----6----|----------11--------|
---------------------|----------------------|---------------------|--------------------|
---------------------|----------------------|---------------------|--------------------|
---------------------|----------------------|---------------------|--------------------|


                                             
--10--------11--------|--10----------------||
----------------------|--------------------||
----------------------|--------------------||
----------------------|--------------------||

http://www.stopforthatdog.com
http://thatdog.net
http://www.annawaronker.com
Comments