That Dog - Old Timer Chords & Tabs

 

Old Timer Chords & Tabs

That Dog Chords & Tabs

Version: 1 Type: Tab 0 ratings
1 star 2 stars 3 stars 4 stars 5 stars
comments

Old Timer Tab

that dog - old timer

Submitted by: Alex Getts. None of this is my own work, Kudos to those that transcribed this.
I am only responsible for submitting this.

transcribed by: aaron wilson (amiloudenough@hotmail.com)

Guitar
Standard Tuning
[ Tab from: http://www.guitartabs.cc/tabs/t/that_dog/old_timer_tab.html ]
                                                     7x                        
E||--------------------||----------------------------||-----------------------|
B||--------------------||----------------------------||-----------------------|
G||*------------------*||*--3--3--3-----6--6--6-----*||--3--3--3-----6--------|
D||*------------------*||*--4--4--4-----7--7--7-----*||--4--4--4-----7--------|
A||--------------------||---4--4--4--0--7--7--7--0---||--4--4--4--0--7--------|
E||--------------------||---2--2--2--0--5--5--5--0---||--2--2--2--0--5--------|


                                     3x
|------------------------------------||
|------------------------------------||
|*--8-8-8-8-7-7-7-7-6-6-6-6-5-5-5-5-*||
|*--9-9-9-9-8-8-8-8-7-7-7-7-6-6-6-6-*||
|---9-9-9-9-8-8-8-8-7-7-7-7-6-6-6-6--||
|---7-7-7-7-6-6-6-6-5-5-5-5-4-4-4-4--||

http://www.stopforthatdog.com
http://thatdog.net
http://www.annawaronker.com
Comments