That Dog - Never Say Never Chords & Tabs

 

Never Say Never Chords & Tabs

That Dog Chords & Tabs

Version: 2 Type: Tab 0 ratings
1 star 2 stars 3 stars 4 stars 5 stars
comments

Never Say Never Tab

that dog - never say never

Submitted by: Alex Getts. None of this is my own work, Kudos to those that transcribed this.
I am only responsible for submitting this.

transcribed by: aaron wilson (amiloudenough@hotmail.com)

Guitar 1
Standard Tuning

                                                       4x
E||--------------------------|-------------------------||------------------------|
B||--------------------------|-------------------------||------------------------|
G||*-------------------------|--5--7----2----2--2--5--*||--5--7----2----2--2--5--|
D||*----3--3--3--3--3--3--3--|--5--7----2----2--2--5--*||--5--7----2----2--2--5--|
A||-----3--3--3--3--3--3--3--|--3--5----0----0--0--3---||--3--5----0----0--0--3--|
E||-----1--1--1--1--1--1--1--|-------------------------||------------------------|


                                                                            
------------------|------------------|------------------|------------------|
------------------|------------------|------------------|------------------|
------------------|------------------|------------------|------------------|
------------------|------------------|------------------|------------------|
------------------|------------------|------------------|------------------|
------------------|------------------|------------------|------------------|


                                                                    
--8-------------8----|------------------|--8-----8-----8-----8-----|
---------8-----------|------------------|-----8-----8-----8-----8--|
---------------------|------------------|--------------------------|
---------------------|------------------|--------------------------|
---------------------|------------------|--------------------------|
---------------------|------------------|--------------------------|


                                                                                4x
--8-----8-----8-----8-----||--------------------------|-------------------------||
-----8-----8-----8-----8--||--------------------------|-------------------------||
--------------------------||*-------------------------|--5--7----2----2--2--5--*||
--------------------------||*----3--3--3--3--3--3--3--|--5--7----2----2--2--5--*||
--------------------------||-----3--3--3--3--3--3--3--|--3--5----0----0--0--3---||
--------------------------||-----1--1--1--1--1--1--1--|-------------------------||


                                                                                  
------------------------|------------------|------------------|------------------|
------------------------|------------------|------------------|------------------|
--5--7----2----2--2--5--|------------------|------------------|------------------|
--5--7----2----2--2--5--|------------------|------------------|------------------|
--3--5----0----0--0--3--|------------------|------------------|------------------|
------------------------|------------------|------------------|------------------|


                                                                                       
------------------|--8------------------|------------------|--8-----8-----8-----8-----|
------------------|---------8-----------|------------------|-----8-----8-----8-----8--|
------------------|----------------5----|------------------|--------------------------|
------------------|---------------------|------------------|--------------------------|
------------------|---------------------|------------------|--------------------------|
------------------|---------------------|------------------|--------------------------|


                                                                                6x
--8-----8-----8-----8-----||--------------------------|-------------------------||
-----8-----8-----8-----8--||--------------------------|-------------------------||
--------------------------||*-------------------------|--5--7----2----2--2--5--*||
--------------------------||*----3--3--3--3--3--3--3--|--5--7----2----2--2--5--*||
--------------------------||-----3--3--3--3--3--3--3--|--3--5----0----0--0--3---||
--------------------------||-----1--1--1--1--1--1--1--|-------------------------||


                                                                                  
------------------------|------------------|------------------|------------------|
------------------------|------------------|------------------|------------------|
--5--7----2----2--2--5--|------------------|------------------|------------------|
--5--7----2----2--2--5--|------------------|------------------|------------------|
--3--5----0----0--0--3--|------------------|------------------|------------------|
------------------------|------------------|------------------|------------------|


                                                                            
------------------|------------------|------------------|------------------|
------------------|------------------|------------------|------------------|
------------------|------------------|------------------|------------------|
------------------|------------------|------------------|------------------|
------------------|------------------|------------------|------------------|
------------------|------------------|------------------|------------------|


                                                                            
------------------|------------------|------------------|------------------|
------------------|------------------|------------------|------------------|
------------------|------------------|------------------|------------------|
------------------|------------------|------------------|------------------|
------------------|------------------|------------------|------------------|
------------------|------------------|------------------|------------------|


                                                                            
------------------|------------------|------------------|------------------|
------------------|------------------|------------------|------------------|
------------------|------------------|------------------|------------------|
------------------|------------------|------------------|------------------|
------------------|------------------|------------------|------------------|
------------------|------------------|------------------|------------------|


                                                                     
------------------|-------------------------|-----------------------|
------------------|-------------------------|-----------------------|
------------------|-------------------------|----7----2----2--2--5--|
------------------|----3--3--3--3--3--3--3--|----7----2----2--2--5--|
------------------|----3--3--3--3--3--3--3--|----5----0----0--0--3--|
------------------|----1--1--1--1--1--1--1--|-----------------------|


                                                                                
|--------------------------|------------------------||-------------------------|
|--------------------------|------------------------||-------------------------|
|*-------------------------|----7----2----2--2--5--*||-------------------------|
|*----3--3--3--3--3--3--3--|----7----2----2--2--5--*||----3--3--3--3--3--3--3--|
|-----3--3--3--3--3--3--3--|----5----0----0--0--3---||----3--3--3--3--3--3--3--|
|-----1--1--1--1--1--1--1--|------------------------||----1--1--1--1--1--1--1--|


                                                                                 
------------------------||---------------------------|--------------------------|
------------------------||---------------------------|--------------------------|
--5--7----2----2--2--5--||*--------------------------|--5--7--7--2--2--2--2--5--|
--5--7----2----2--2--5--||*--3--3--3--3--3--3--3--3--|--5--7--7--2--2--2--2--5--|
--3--5----0----0--0--3--||---3--3--3--3--3--3--3--3--|--3--5--5--0--0--0--0--3--|
------------------------||---1--1--1--1--1--1--1--1--|--------------------------|


                                                                                   
--------------------------|---------------------------||--------------------------|
--------------------------|---------------------------||--------------------------|
--------------------------|--5--7--7--2--2--2--2--5--*||--------------------------|
--3--3--3--3--3--3--3--3--|--5--7--7--2--2--2--2--5--*||--3--3--3--3--3--3--3--3--|
--3--3--3--3--3--3--3--3--|--3--5--5--0--0--0--0--3---||--3--3--3--3--3--3--3--3--|
--1--1--1--1--1--1--1--1--|---------------------------||--1--1--1--1--1--1--1--1--|


                                                                                4x
--------------------------||--------------------------|-------------------------||
--------------------------||--------------------------|-------------------------||
--5--7--7--2--2--2--2--5--||*-------------------------|--5--7----2----2--2--5--*||
--5--7--7--2--2--2--2--5--||*----3--3--3--3--3--3--3--|--5--7----2----2--2--5--*||
--3--5--5--0--0--0--0--3--||-----3--3--3--3--3--3--3--|--3--5----0----0--0--3---||
--------------------------||-----1--1--1--1--1--1--1--|-------------------------||


                                                                                  
---------------------------|--------------------------|--------------------------|
---------------------------|--------------------------|--------------------------|
*--------------------------|--5--7--7--2--2--2--2--5--|--------------------------|
*--3--3--3--3--3--3--3--3--|--5--7--7--2--2--2--2--5--|--3--3--3--3--3--3--3--3--|
---3--3--3--3--3--3--3--3--|--3--5--5--0--0--0--0--3--|--3--3--3--3--3--3--3--3--|
---1--1--1--1--1--1--1--1--|--------------------------|--1--1--1--1--1--1--1--1--|


                                                                                   
---------------------------||--------------------------|--------------------------|
---------------------------||--------------------------|--------------------------|
--5--7--7--2--2--2--2--5--*||--------------------------|--5--7--7--2--2--2--2--5--|
--5--7--7--2--2--2--2--5--*||--3--3--3--3--3--3--3--3--|--5--7--7--2--2--2--2--5--|
--3--5--5--0--0--0--0--3---||--3--3--3--3--3--3--3--3--|--3--5--5--0--0--0--0--3--|
---------------------------||--1--1--1--1--1--1--1--1--|--------------------------|


                                                                               
|--------------------------|------------------------|-------------------------|
|--------------------------|------------------------|-------------------------|
|*-------------------------|--5--7----2----2--2--5--|-------------------------|
|*----3--3--3--3--3--3--3--|--5--7----2----2--2--5--|----3--3--3--3--3--3--3--|
|-----3--3--3--3--3--3--3--|--3--5----0----0--0--3--|----3--3--3--3--3--3--3--|
|-----1--1--1--1--1--1--1--|------------------------|----1--1--1--1--1--1--1--|


                                                                              
-------------------------||-------------------------|------------------------|
-------------------------||-------------------------|------------------------|
--5--7----2----2--2--5--*||-------------------------|--5--7----2----2--2--5--|
--5--7----2----2--2--5--*||----3--3--3--3--3--3--3--|--5--7----2----2--2--5--|
--3--5----0----0--0--3---||----3--3--3--3--3--3--3--|--3--5----0----0--0--3--|
-------------------------||----1--1--1--1--1--1--1--|------------------------|


                                                                               
|--------------------------|------------------------|-------------------------|
|--------------------------|------------------------|-------------------------|
|*-------------------------|--5--7----2----2--2--5--|-------------------------|
|*----3--3--3--3--3--3--3--|--5--7----2----2--2--5--|----3--3--3--3--3--3--3--|
|-----3--3--3--3--3--3--3--|--3--5----0----0--0--3--|----3--3--3--3--3--3--3--|
|-----1--1--1--1--1--1--1--|------------------------|----1--1--1--1--1--1--1--|


                                                                              
-------------------------||-------------------------|------------------------|
-------------------------||-------------------------|------------------------|
--5--7----2----2--2--5--*||-------------------------|--5--7----2----2--2--5--|
--5--7----2----2--2--5--*||----3--3--3--3--3--3--3--|--5--7----2----2--2--5--|
--3--5----0----0--0--3---||----3--3--3--3--3--3--3--|--3--5----0----0--0--3--|
-------------------------||----1--1--1--1--1--1--1--|------------------------|


                                                                               
|--------------------------|------------------------|-------------------------|
|--------------------------|------------------------|-------------------------|
|*-------------------------|--5--7----2----2--2--5--|-------------------------|
|*----3--3--3--3--3--3--3--|--5--7----2----2--2--5--|----3--3--3--3--3--3--3--|
|-----3--3--3--3--3--3--3--|--3--5----0----0--0--3--|----3--3--3--3--3--3--3--|
|-----1--1--1--1--1--1--1--|------------------------|----1--1--1--1--1--1--1--|


                                                                               
-------------------------||-------------------------|------------------------||
-------------------------||-------------------------|------------------------||
--5--7----2----2--2--5--*||-------------------------|--5--7----2----2--2--5--||
--5--7----2----2--2--5--*||----3--3--3--3--3--3--3--|--5--7----2----2--2--5--||
--3--5----0----0--0--3---||----3--3--3--3--3--3--3--|--3--5----0----0--0--3--||
-------------------------||----1--1--1--1--1--1--1--|------------------------||

Guitar 2
Standard Tuning

I used the same track to tab out the violin as the other guitar.
You'll see what I mean, below.

[ Tab from: http://www.guitartabs.cc/tabs/t/that_dog/never_say_never_tab_ver_2.html ]
                                          4x
E||-------------------|-------------------||------------------|------------------|
B||-------------------|-------------------||------------------|------------------|
G||*------------------|------------------*||------------------|------------------|
D||*------------------|------------------*||------------------|------------------|
A||-------------------|-------------------||------------------|------------------|
E||-------------------|-------------------||------------------|------------------|


                                                                            
------------------|------------------|------------------|------------------|
------------------|------------------|------------------|------------------|
------------------|------------------|------------------|------------------|
------------------|------------------|------------------|------------------|
------------------|------------------|------------------|------------------|
------------------|------------------|------------------|------------------|


                                                                              
------------------|------------------|------------------||-------------------|
------------------|------------------|------------------||-------------------|
------------------|------------------|------------------||*------------------|
------------------|------------------|------------------||*------------------|
------------------|------------------|------------------||-------------------|
------------------|------------------|------------------||-------------------|


                   4x                                                         
-------------------||------------------|------------------|------------------|
-------------------||------------------|------------------|------------------|
------------------*||------------------|------------------|------------------|
------------------*||------------------|------------------|------------------|
-------------------||------------------|------------------|------------------|
-------------------||------------------|------------------|------------------|


                                                                            
------------------|------------------|------------------|------------------|
------------------|------------------|------------------|------------------|
------------------|------------------|------------------|------------------|
------------------|------------------|------------------|------------------|
------------------|------------------|------------------|------------------|
------------------|------------------|------------------|------------------|


                                                                              6x
------------------|------------------||-------------------|-------------------||
------------------|------------------||-------------------|-------------------||
------------------|------------------||*------------------|------------------*||
------------------|------------------||*------------------|------------------*||
------------------|------------------||-------------------|-------------------||
------------------|------------------||-------------------|-------------------||


                                                                                        
---------------------------------12-13-15-17-|--15----------------|--15----------------|
---------------------10-12-13-15-------------|--------------------|--------------------|
-----------7-9-11-12-------------------------|--------------------|--------------------|
--5-7-9-10-----------------------------------|--------------------|--------------------|
---------------------------------------------|--------------------|--------------------|
---------------------------------------------|--------------------|--------------------|


                                                                                           
--15----------------|------------8-------|------------------|-----------------------------|
--------------------|-----------------8--|------------------|-----------------------------|
--------------------|--------------------|------------------|----10----9--10----9----5----|
--------------------|--------------------|------------------|-----------------------------|
--------------------|--------------------|------------------|-----------------------------|
--------------------|--------------------|------------------|-----------------------------|


                                                                              
-------------------|--12----10----8---------8----10----|--15-----------------|
--8----------------|-------------------8---------------|---------------------|
--0----------------|--5----------------7---------------|--4---------0--------|
-------------------|-----------------------------------|---------------------|
-------------------|-----------------------------------|---------------------|
-------------------|-----------------------------------|---------------------|


                                                                                 
--15----12----10----12----10----8----|--------------------|---------------------|
-------------------------------------|--8-----------------|--8--------13--------|
--5-----------------7----------------|--9--------5--------|--9--------12--------|
-------------------------------------|--------------------|---------------------|
-------------------------------------|--------------------|---------------------|
-------------------------------------|--------------------|---------------------|


                                                                                         
--20------------19------------|--17--------------15----27--|----------------------------|
------------------------------|----------------------------|--20--24----25----27----25--|
--10--12----14------16----16--|--17--19----21----22----24--|----------------------------|
------------------------------|----------------------------|----------------------------|
------------------------------|----------------------------|----------------------------|
------------------------------|----------------------------|----------------------------|


                    Guitar starts here                                                
------------------|------------------------|------------------------|
------------------|------------------------|---------------------8--|
------------------|----5--7--9----7--5--5--|----5--7--9----7--5-----|
------------------|------------------------|------------------------|
------------------|------------------------|------------------------|
------------------|------------------------|------------------------|


                                                                                 
|--------------------------|-------------------------||-------------------------|
|--------------------------|---------------------8---||-------------------------|
|*----5--5--7--9--7--5--5--|----5--7--9----7--5-----*||----5--5--7--9--7--5--5--|
|*-------------------------|------------------------*||-------------------------|
|--------------------------|-------------------------||-------------------------|
|--------------------------|-------------------------||-------------------------|


                                                                                
-----------------------||---------------------------|--------------------------|
-----------------------||---8--8--8--8--6--6--6--6--|--5--5--5--5--3--3--3--3--|
----5--7--9----7--5----||*--------------------------|--------------------------|
-----------------------||*--------------------------|--------------------------|
-----------------------||---------------------------|--------------------------|
-----------------------||---------------------------|--------------------------|


                                                                                           
--------------------------|-----------------------------------||--------------------------|
--8--8--8--8--6--6--6--6--|--10--10--10--10--12--12--12--12---||--8--8--8--8--8--8--8--8--|
--------------------------|----------------------------------*||--------------------------|
--------------------------|----------------------------------*||--------------------------|
--------------------------|-----------------------------------||--------------------------|
--------------------------|-----------------------------------||--------------------------|


                                                                   4x
--------------------------||-------------------|-------------------||
--8--8--8--8--8--8--8--8--||-------------------|-------------------||
--------------------------||*------------------|------------------*||
--------------------------||*------------------|------------------*||
--------------------------||-------------------|-------------------||
--------------------------||-------------------|-------------------||


                                                                                  
---------------------------|--------------------------|--------------------------|
---8--8--8--8--6--6--6--6--|--5--5--5--5--3--3--3--3--|--8--8--8--8--6--6--6--6--|
*--------------------------|--------------------------|--------------------------|
*--------------------------|--------------------------|--------------------------|
---------------------------|--------------------------|--------------------------|
---------------------------|--------------------------|--------------------------|


                                                                                           
-----------------------------------||--------------------------|--------------------------|
--10--10--10--10--12--12--12--12---||--8--8--8--8--8--8--8--8--|--8--8--8--8--8--8--8--8--|
----------------------------------*||--------------------------|--------------------------|
----------------------------------*||--------------------------|--------------------------|
-----------------------------------||--------------------------|--------------------------|
-----------------------------------||--------------------------|--------------------------|


                                                                                   
|---------------------------|--------------------------|--------------------------|
|---8--8--8--8--6--6--6--6--|--5--5--5--5--3--3--3--3--|--8--8--8--8--6--6--6--6--|
|*--------------------------|--------------------------|--------------------------|
|*--------------------------|--------------------------|--------------------------|
|---------------------------|--------------------------|--------------------------|
|---------------------------|--------------------------|--------------------------|


                                                                                           
-----------------------------------||--------------------------|--------------------------|
--10--10--10--10--12--12--12--12---||--8--8--8--8--8--8--8--8--|--8--8--8--8--8--8--8--8--|
----------------------------------*||--------------------------|--------------------------|
----------------------------------*||--------------------------|--------------------------|
-----------------------------------||--------------------------|--------------------------|
-----------------------------------||--------------------------|--------------------------|


                                                                                   
|---------------------------|--------------------------|--------------------------|
|---8--8--8--8--6--6--6--6--|--5--5--5--5--3--3--3--3--|--8--8--8--8--6--6--6--6--|
|*--------------------------|--------------------------|--------------------------|
|*--------------------------|--------------------------|--------------------------|
|---------------------------|--------------------------|--------------------------|
|---------------------------|--------------------------|--------------------------|


                                                                                           
-----------------------------------||--------------------------|--------------------------|
--10--10--10--10--12--12--12--12---||--8--8--8--8--8--8--8--8--|--8--8--8--8--8--8--8--8--|
----------------------------------*||--------------------------|--------------------------|
----------------------------------*||--------------------------|--------------------------|
-----------------------------------||--------------------------|--------------------------|
-----------------------------------||--------------------------|--------------------------|


                                                                                   
|---------------------------|--------------------------|--------------------------|
|---8--8--8--8--6--6--6--6--|--5--5--5--5--3--3--3--3--|--8--8--8--8--6--6--6--6--|
|*--------------------------|--------------------------|--------------------------|
|*--------------------------|--------------------------|--------------------------|
|---------------------------|--------------------------|--------------------------|
|---------------------------|--------------------------|--------------------------|


                                                                                            
-----------------------------------||--------------------------|--------------------------||
--10--10--10--10--12--12--12--12---||--8--8--8--8--8--8--8--8--|--8--8--8--8--8--8--8--8--||
----------------------------------*||--------------------------|--------------------------||
----------------------------------*||--------------------------|--------------------------||
-----------------------------------||--------------------------|--------------------------||
-----------------------------------||--------------------------|--------------------------||

http://www.stopforthatdog.com
http://thatdog.net
http://www.annawaronker.com
Comments