That Dog - Never Say Never Chords & Tabs

 

Never Say Never Chords & Tabs

That Dog Chords & Tabs

Version: 1 Type: Tab 0 ratings
1 star 2 stars 3 stars 4 stars 5 stars
comments

Never Say Never Tab

#----------------------------------PLEASE NOTE--------------------------------#
#This file is the author's own work and represents their interpretation of the#
#song. You may only use this file for private study, scholarship, or research.#
#-----------------------------------------------------------------------------#
#-- File created with Instab - http://www.pconline.com/~smcarey/instab.html --#
#-----------------------------------------------------------------------------#

Author/Artist: That Dog.
Title: Never Say Never
Transcribed by: Mike Ivanco
Email: fentoozer68@hotmail.com

There it is

------------------------------------------------------------------------------
------------------------------------------------------------------------------
---6-8---6--------------------------------------------------------------------
-4-6-8-8-6--------------------------------------------------------------------
-4-4-6-8-4--------------------------------------------------------------------
-2-----6----------------------------------------------------------------------
 Riff                                                                         
[ Tab from: http://www.guitartabs.cc/tabs/t/that_dog/never_say_never_tab.html ]
-9-9-9------------------------------------------------------------------------
-9-9-9------------------------------------------------------------------------
------------------------------------------------------------------------------
------------------------------------------------------------------------------
------------------------------------------------------------------------------
------------------------------------------------------------------------------
 solo                                                                         

-----------4-----------4-----------4------------------------------------------
-2-4-6-4-2---2-4-6-4-2---2-4-6-4-2--------------------------------------------
------------------------------------------------------------------------------
------------------------------------------------------------------------------
------------------------------------------------------------------------------
------------------------------------------------------------------------------
 Keyboard riff                                                                

------------------------------------------------------------------------------
----14----14----14------------------------------------------------------------
-13----13----13----13--11-8-10-8-11-8-10--------------------------------------
-----------------------------------------11-----------------------------------
------------------------------------------------------------------------------
------------------------------------------------------------------------------
                                                                              

Comments