That Dog - Ms Wrong Chords & Tabs

 

Ms Wrong Chords & Tabs

That Dog Chords & Tabs

Version: 1 Type: Bass Tab 0 ratings
1 star 2 stars 3 stars 4 stars 5 stars
comments

Ms Wrong Bass Tab

that dog - ms wrong

Submitted by: Alex Getts. None of this is my own work, Kudos to those that transcribed this.
I am only responsible for submitting this.

transcribed by: aaron wilson (amiloudenough@hotmail.com)

Bass
Standard Tuning

G||--------------------------|--------------------------|
D||--------------------------|--------------------------|
A||--------------------------|--------------------------|
E||--------------------------|--------------------------|


                                                                                  
|---------------------------------------|---------------------------------------||
|*--------------------------------------|--------------------------------------*||
|*--------------4--4--4--4--2--2--2--2--|--------------3--3--3--3--3--3--3--3--*||
|---3--3--3--3--------------------------|--3--3--3--3---------------------------||


                                                                                 
---------------------------------------|---------------------------------------||
*--------------------------------------|--------------------------------------*||
*--------------4--4--4--4--2--2--2--2--|--------------3--3--3--3--3--3--3--3--*||
---3--3--3--3--------------------------|--3--3--3--3---------------------------||


                                                                                         
-------------------------|-------------------|----------------------|-------------------|
-------------------------|-------------------|----------------------|-------------------|
-------------------------|--3----------------|--5--------5--7--5----|--7----------------|
--3--3--3--3--3--3--3----|-------------------|----------------------|-------------------|


                                                                                 
--------------------------|--------------------------|--------------------------|
--------------------------|--------------------------|--------------------------|
--------------------------|--3--3--3--3--5--5--5--5--|--7--7--7-----------------|
--5--5--5--5--5--5--5--5--|--------------------------|-----------5--5--5--5--5--|


                                                                        
|---------------------|--------------------||--------------------------|
|*--------------------|-------------------*||--------------------------|
|*--3--------5--------|-------------------*||--3--3--3--3--5--5--5--5--|
|---------------------|--5-----------------||--------------------------|


                                                                  
--------------------------|--------------------------------------|
--------------------------|--------------------------------------|
--------------------------|--------------4--4--4--4--2--2--2--2--|
--5--5--5--5--5--5--5--5--|--3--3--3--3--------------------------|


                                                                              
--------------------------------------|--------------------------------------|
--------------------------------------|--------------------------------------|
--------------3--3--3--3--3--3--3--3--|--------------4--4--4--4--2--2--2--2--|
--3--3--3--3--------------------------|--3--3--3--3--------------------------|


                                                                     
--------------------------------------|-----------------------------|
--------------------------------------|-----------------------------|
--------------3--3--3--3--3--3--3--3--|-----------4--------2--------|
--3--3--3--3--------------------------|--3--------------------------|

[ Tab from: http://www.guitartabs.cc/tabs/t/that_dog/ms_wrong_btab.html ]
                                                                                        
----------------------------|-----------------------------|----------------------------|
----------------------------|-----------------------------|----------------------------|
-----------3----------------|-----------4--------2--------|-----------3----------------|
--3-------------------------|--3--------------------------|--3-------------------------|


                                                                                  
|---------------------------------------|---------------------------------------||
|*--------------------------------------|--------------------------------------*||
|*--------------4--4--4--4--2--2--2--2--|--------------3--3--3--3--3--3--3--3--*||
|---3--3--3--3--------------------------|--3--3--3--3---------------------------||


                                                                      
-------------------------|---------------------|---------------------|
-------------------------|------------5--------|---------7-----------|
-------------------------|--3----3-------------|--5-------------5----|
--3--3--3--3--3--3--3----|---------------------|---------------------|


                                                                               
---------9----11--------|--------------------------|--------------------------|
------------------------|--------------------------|--------------------------|
--7---------------7-----|--------------------------|--3--3--3--3--5--5--5--5--|
---------------------0--|--5--5--5--5--5--5--5--5--|--------------------------|


                                                                        
--------------------------||---------------------|--------------------||
--------------------------||*--------------------|-------------------*||
--7--7--7-----------------||*--3--------5--------|-------------------*||
-----------5--5--5--5--5--||---------------------|--5-----------------||


                                                                                             
--------------------------|--------------------------|--------------------------------------|
--------------------------|--------------------------|--------------------------------------|
--3--3--3--3--5--5--5--5--|--------------------------|--------------4--4--4--4--2--2--2--2--|
--------------------------|--5--5--5--5--5--5--5--5--|--3--3--3--3--------------------------|


                                                                              
--------------------------------------|--------------------------------------|
--------------------------------------|--------------------------------------|
--------------3--3--3--3--3--3--3--3--|--------------4--4--4--4--2--2--2--2--|
--3--3--3--3--------------------------|--3--3--3--3--------------------------|


                                                                                
--------------------------------------||---------------------------------------|
--------------------------------------||*--------------------------------------|
--------------3--3--3--3--3--3--3--3--||*--------------4--4--4--4--2--2--2--2--|
--3--3--3--3--------------------------||---3--3--3--3--------------------------|


                                                                                
---------------------------------------||-------------------|------------------|
--------------------------------------*||-------------------|------------------|
--------------3--3--3--3--3--3--3--3--*||-------------------|------------------|
--3--3--3--3---------------------------||--3----------------|------------------|

http://www.stopforthatdog.com
http://thatdog.net
http://www.annawaronker.com
Comments