That Dog - Minneapolis Chords & Tabs

 

Minneapolis Chords & Tabs

That Dog Chords & Tabs

Version: 2 Type: Bass Tab 0 ratings
1 star 2 stars 3 stars 4 stars 5 stars
comments

Minneapolis Bass Tab

that dog - minneapolis

Submitted by: Alex Getts. None of this is my own work, Kudos to those that transcribed this.
I am only responsible for submitting this.

transcribed by: aaron wilson (amiloudenough@hotmail.com)

Bass
Standard Tuning

Note: I got a little lazy on this one, and I only tabbed out the important parts.
But hey, you should know the song.


G||--------------------||------------------|------------------|------------------|
D||*------------------*||------------------|------------------|------------------|
A||*------------------*||------------------|------------------|------------------|
E||--------------------||------------------|------------------|------------------|


                                                                                
------------------|------------------|------------------||--------------------||
------------------|------------------|------------------||*------------------*||
------------------|------------------|------------------||*------------------*||
------------------|------------------|------------------||--------------------||


                                                                                 
--------------------------|--------------------------|--------------------------|
--------------------------|--------------------------|--------------------------|
--3--3--3--3--3--3--3--3--|--3--3--3--3--3--3--3--3--|--2--2--2--2--2--2--2-----|
--------------------------|--------------------------|-----------------------3--|


                                                                                 
--------------------------|--------------------------|--------------------------|
--------------------------|--------------------------|--------------------------|
--------------------------|--5--5--5--5--5--5--5--5--|--5--5--5--5--5--5--5--5--|
--3--3--3--3--3--3--3--3--|--------------------------|--------------------------|


                                                                              
-------------------------|-------------------------|-------------------------|
-------------------------|-------------------------|-------------------------|
-------------------------|-------------------------|--3--3--3--3--3--5-------|
--0--0--0--0--0--2----3--|----3--3--3--3--3--3--3--|----------------------3--|

[ Tab from: http://www.guitartabs.cc/tabs/t/that_dog/minneapolis_btab_ver_2.html ]
                                                                              
-------------------------|-------------------------|-------------------------|
-------------------------|-------------------------|-------------------------|
-------------------------|-------------------------|-------------------------|
----3--3--3--3--3--3--3--|--0--0--0--0--0--2----3--|----3--3--3--3--3--3--3--|


                                                                        
-------------------------|------------------|--------------------------|
-------------------------|------------------|--------------------------|
--3--3--3--3--3--5-------|------------------|--------------------------|
----------------------3--|------------------|--3--3--3--3--3--3--3--3--|


                                                                                 
--------------------------|--------------------------|--------------------------|
--------------------------|--------------------------|--------------------------|
--------------------------|--------------------------|--------------------------|
--3--3--3--3--3--3--3--3--|--3--3--3--3--3--3--3--3--|--3--3--3--3--3--3--3--3--|


                                                                                 
--------------------------|--------------------------|--------------------------|
--------------------------|--------------------------|--------------------------|
--------------------------|--------------------------|--------------------------|
--3--3--3--3--3--3--3--3--|--3--3--3--3--3--3--3--3--|--3--3--3--3--3--3--3--3--|


                                                                               
--------------------------|-------------------------|-------------------------|
--------------------------|-------------------------|-------------------------|
--------------------------|-------------------------|-------------------------|
--3--3--3--3--3--2--2--0--|--0--0--0--0--0--2----3--|----3--3--3--3--3--3--3--|


                                                                               
-------------------------|--------------------------|-------------------------|
-------------------------|--------------------------|-------------------------|
-------------------------|--------------------------|-------------------------|
--5--5--5--5--5--7----8--|----8--10--8--8--8--8--8--|--0--0--0--0--0--2----3--|


                                                                                 
-------------------------|--------------------------|--------------------------||
-------------------------|--------------------------|--------------------------||
-------------------------|--------------------------|--------------------------||
----3--3--3--3--3--3--3--|--3--3--3--3--3--3--3--3--|--3--3--3--3--3--3--3--3--||

http://www.stopforthatdog.com
http://thatdog.net
http://www.annawaronker.com
Comments