That Dog - Minneapolis Chords & Tabs

 

Minneapolis Chords & Tabs

That Dog Chords & Tabs

Version: 1 Type: Bass Tab 0 ratings
1 star 2 stars 3 stars 4 stars 5 stars
comments

Minneapolis Bass Tab

   
that dog.
Minneapolis
Tabbed By Jason The Great (DAWgAWD@HoTMaiL.com)

FIRST VERSE

start at "he kept looking right my way"

G|-----------------------------|-----------------------------|
D|-----------------------------|-----------------------------|
A|-----------------------------|-----------2-3-3-3-3-3-3-3-3-|
E|-0-0-0-0-0-2-3-3-3-3-3-3-3-3-|-5-5-5-5-5-------------------|

G|-----------------------------|-----------------------------|
D|-----------------------------|-----------------------------|
A|-----------------------------|----5------5------5------5---|
E|-0-0-0-0-0-2-3-3-3-3-3-3-3-3-|-33---3-33---3-33---3-33---3-|

play the above part twice and then go into this at "took my keys"
(please note: you only play the above part durring the first verse,
subsequent verses are played as follows)

G|-----------------------------|-----------------------------|
D|-----------------------------|------------------0------0---|
A|------------------5------5---|-----------2-3--3---3-33---3-|
E|-0-0-0-0-0-2-3--3---3-33---3-|-5-5-5-5-5-------------------|
[ Tab from: http://www.guitartabs.cc/tabs/t/that_dog/minneapolis_btab.html ]
G|-----------------------------|-----------------------------|
D|-----------------------------|-----------------------------|
A|------------------5------5---|----5------5------5------5---|
E|-0-0-0-0-0-2-3--3---3-33---3-|-33---3-33---3-33---3-33---3-|

CHORUS

G|---------------------------------|---------------------------------|
D|---------------------------------|---------------------------------|
A|-3-3-3-3-3-3-3-3-3-3-3-3-3-3-3-3-|-2-2-2-2-2-2-2-2-----------------|
E|---------------------------------|-----------------3-3-3-3-3-3-3-3-|

and tack this onto the end when she sings it like "minneap.. olis"

G|-----------------------------|
D|-----------------------------|
A|-3-3-3-3-3-5-----------------|
E|-------------3-3-3-3-3-3-3-3-|

BRIDGE

G|-----|
D|-----|
A|-----| (a bunch of times)
E|-3-3-|

then play the verse, possibly with small improvisations while the
guitar plays it's little solo thing

OUTRO

G|-----------------------------|  |---|
D|-----------------------------|  |---|
A|-----------------------------|x2|---|
E|-3-3-3-3-3-3-3-3-5-5-5-5-/8*-|  |-3-|

*let ring

Comments