That Dog - Lip Gloss Chords & Tabs

 

Lip Gloss Chords & Tabs

That Dog Chords & Tabs

Version: 1 Type: Tab 0 ratings
1 star 2 stars 3 stars 4 stars 5 stars
comments

Lip Gloss Tab

that dog - lip gloss

Submitted by: Alex Getts. None of this is my own work, Kudos to those that transcribed this.
I am only responsible for submitting this.

transcribed by: aaron wilson (amiloudenough@hotmail.com)

Guitar 1
Open E Tuning

E ||--0----0----0----0----|--7----7----7----7----|--3----3----3----3----|
B ||--0----0----0----0----|--7----7----7----7----|--3----3----3----3----|
G#||--0----0----0----0----|--7----7----7----7----|--3----3----3----3----|
E ||--0----0----0----0----|--7----7----7----7----|--3----3----3----3----|
B ||--0----0----0----0----|--7----7----7----7----|--3----3----3----3----|
E ||--0----0----0----0----|--7----7----7----7----|--3----3----3----3----|


                                                                                            
--9----9----9----9----|--0----0----0----0----|--7----7----7----7----|--3----3----3----3----|
--9----9----9----9----|--0----0----0----0----|--7----7----7----7----|--3----3----3----3----|
--9----9----9----9----|--0----0----0----0----|--7----7----7----7----|--3----3----3----3----|
--9----9----9----9----|--0----0----0----0----|--7----7----7----7----|--3----3----3----3----|
--9----9----9----9----|--0----0----0----0----|--7----7----7----7----|--3----3----3----3----|
--9----9----9----9----|--0----0----0----0----|--7----7----7----7----|--3----3----3----3----|


  Faster                                                                   
--9----------------|------------------||---0--0--0--0--7--7--7--7--|
--9----------------|------------------||---0--0--0--0--7--7--7--7--|
--9----------------|------------------||*--0--0--0--0--7--7--7--7--|
--9----------------|------------------||*--0--0--0--0--7--7--7--7--|
--9----------------|------------------||---0--0--0--0--7--7--7--7--|
--9----------------|------------------||---0--0--0--0--7--7--7--7--|


                           4x                                                          
--3--3--3--9--9--9--9--9---||--0----------------|------------------|------------------|
--3--3--3--9--9--9--9--9---||--0----------------|------------------|------------------|
--3--3--3--9--9--9--9--9--*||--0----------------|------------------|------------------|
--3--3--3--9--9--9--9--9--*||--0----------------|------------------|------------------|
--3--3--3--9--9--9--9--9---||--0----------------|------------------|------------------|
--3--3--3--9--9--9--9--9---||--0----------------|------------------|------------------|


                                                                            
------------------|------------------|------------------|------------------|
------------------|------------------|------------------|------------------|
------------------|------------------|------------------|------------------|
------------------|------------------|------------------|------------------|
------------------|------------------|------------------|------------------|
------------------|------------------|------------------|------------------|


                                                                           4x
------------------||---0--0--0--0--7--7--7--7--|--3--3--3--9--9--9--9--9---||
------------------||---0--0--0--0--7--7--7--7--|--3--3--3--9--9--9--9--9---||
------------------||*--0--0--0--0--7--7--7--7--|--3--3--3--9--9--9--9--9--*||
------------------||*--0--0--0--0--7--7--7--7--|--3--3--3--9--9--9--9--9--*||
------------------||---0--0--0--0--7--7--7--7--|--3--3--3--9--9--9--9--9---||
------------------||---0--0--0--0--7--7--7--7--|--3--3--3--9--9--9--9--9---||


                                                       4x                            
---0--0--0--0--0--0--0--0--|--0--0--0--0--0--0--0--0---||---0--0--0--0--7--7--7--7--|
---5--5--5--5--5--5--5--5--|--5--5--5--5--5--5--5--5---||---0--0--0--0--7--7--7--7--|
*--------------------------|--------------------------*||*--0--0--0--0--7--7--7--7--|
*--------------------------|--------------------------*||*--0--0--0--0--7--7--7--7--|
---------------------------|---------------------------||---0--0--0--0--7--7--7--7--|
---------------------------|---------------------------||---0--0--0--0--7--7--7--7--|


                                                                                      
--3--3--3--9--9--9--9--9---||---0--0--0--0--0--0--0--0--|--0--0--0--0--0--0--0--0---||
--3--3--3--9--9--9--9--9---||---5--5--5--5--5--5--5--5--|--5--5--5--5--5--5--5--5---||
--3--3--3--9--9--9--9--9--*||*--------------------------|--------------------------*||
--3--3--3--9--9--9--9--9--*||*--------------------------|--------------------------*||
--3--3--3--9--9--9--9--9---||---------------------------|---------------------------||
--3--3--3--9--9--9--9--9---||---------------------------|---------------------------||


                                                                                             
--0--0--0--0--7--7--7--7--|--3--3--3--9--9--9--9--9--|--0----------------|------------------|
--0--0--0--0--7--7--7--7--|--3--3--3--9--9--9--9--9--|--0----------------|------------------|
--0--0--0--0--7--7--7--7--|--3--3--3--9--9--9--9--9--|--0----------------|------------------|
--0--0--0--0--7--7--7--7--|--3--3--3--9--9--9--9--9--|--0----------------|------------------|
--0--0--0--0--7--7--7--7--|--3--3--3--9--9--9--9--9--|--0----------------|------------------|
--0--0--0--0--7--7--7--7--|--3--3--3--9--9--9--9--9--|--0----------------|------------------|


                                                                            
------------------|------------------|------------------|------------------|
------------------|------------------|------------------|------------------|
------------------|------------------|------------------|------------------|
------------------|------------------|------------------|------------------|
------------------|------------------|------------------|------------------|
------------------|------------------|------------------|------------------|


                                                                   
------------------|------------------||---0--0--0--0--7--7--7--7--|
------------------|------------------||---0--0--0--0--7--7--7--7--|
------------------|------------------||*--0--0--0--0--7--7--7--7--|
------------------|------------------||*--0--0--0--0--7--7--7--7--|
------------------|------------------||---0--0--0--0--7--7--7--7--|
------------------|------------------||---0--0--0--0--7--7--7--7--|


                           4x  Much slower
--3--3--3--9--9--9--9--9---||--0--0--0--6--3--3--3--|--3--3--3--3--4--4--4--|
--3--3--3--9--9--9--9--9---||--0--0--0--6--3--3--3--|--0--0--0--0--0--0--0--|
--3--3--3--9--9--9--9--9--*||--0--0--0--6--3--3--3--|--0--0--0--0--0--0--0--|
--3--3--3--9--9--9--9--9--*||--0--0--0--6--3--3--3--|--0--0--0--0--0--0--0--|
--3--3--3--9--9--9--9--9---||--0--0--0--6--3--3--3--|-----------------------|
--3--3--3--9--9--9--9--9---||--0--0--0--6--3--3--3--|-----------------------|


                                                                                           
--4--4--4--4--5--5--5--|--5--5--5--5--7--7--7--|--------------------|---------------------|
--0--0--0--0--0--0--0--|--0--0--0--0--0--0--0--|--------------------|---------------------|
--0--0--0--0--0--0--0--|--0--0--0--0--0--0--0--|--0-----------------|---------------------|
--0--0--0--0--0--0--0--|--0--0--0--0--0--0--0--|--0-----------------|---------------------|
-----------------------|-----------------------|--0-----------------|---------------------|
-----------------------|-----------------------|--0------------8b---|--0------------10b---|


                                               Faster                         
---------------------|----------------------||---0--0--0--0--6--6--6--6--|
---------------------|----------------------||---0--0--0--0--6--6--6--6--|
---------------------|----------------------||*--0--0--0--0--6--6--6--6--|
---------------------|----------------------||*--0--0--0--0--6--6--6--6--|
--0------------------|----------------------||---0--0--0--0--6--6--6--6--|
--0------------13b---|----15------------13/-||---0--0--0--0--6--6--6--6--|


                           4x                                                      12x
--3--3--3--3--3--3--3--3---||---0--0--0--0--7--7--7--7--|--3--3--3--9--9--9--9--9---||
--3--3--3--3--3--3--3--3---||---0--0--0--0--7--7--7--7--|--3--3--3--9--9--9--9--9---||
--3--3--3--3--3--3--3--3--*||*--0--0--0--0--7--7--7--7--|--3--3--3--9--9--9--9--9--*||
--3--3--3--3--3--3--3--3--*||*--0--0--0--0--7--7--7--7--|--3--3--3--9--9--9--9--9--*||
--3--3--3--3--3--3--3--3---||---0--0--0--0--7--7--7--7--|--3--3--3--9--9--9--9--9---||
--3--3--3--3--3--3--3--3---||---0--0--0--0--7--7--7--7--|--3--3--3--9--9--9--9--9---||


                                                       4x                            
---0--0--0--0--0--0--0--0--|--0--0--0--0--0--0--0--0---||---0--0--0--0--7--7--7--7--|
---5--5--5--5--5--5--5--5--|--5--5--5--5--5--5--5--5---||---0--0--0--0--7--7--7--7--|
*--------------------------|--------------------------*||*--0--0--0--0--7--7--7--7--|
*--------------------------|--------------------------*||*--0--0--0--0--7--7--7--7--|
---------------------------|---------------------------||---0--0--0--0--7--7--7--7--|
---------------------------|---------------------------||---0--0--0--0--7--7--7--7--|


                                                                                    4x
--3--3--3--9--9--9--9--9---||---0--0--0--0--0--0--0--0--|--0--0--0--0--0--0--0--0---||
--3--3--3--9--9--9--9--9---||---5--5--5--5--5--5--5--5--|--5--5--5--5--5--5--5--5---||
--3--3--3--9--9--9--9--9--*||*--------------------------|--------------------------*||
--3--3--3--9--9--9--9--9--*||*--------------------------|--------------------------*||
--3--3--3--9--9--9--9--9---||---------------------------|---------------------------||
--3--3--3--9--9--9--9--9---||---------------------------|---------------------------||

[ Tab from: http://www.guitartabs.cc/tabs/t/that_dog/lip_gloss_tab.html ]
                     * (Pull finger off of strings for feedback) 
------------------|-------------------|--0--0--0--0--0--0--0--0--|--0--0--0--0--0--0--0--0--|
------------------|-------------------|--5--5--5--5--5--5--5--5--|--5--5--5--5--5--5--5--5--|
------------------|-------------------|--------------------------|--------------------------|
------------------|--0----------------|--------------------------|--------------------------|
------------------|--0----------------|--------------------------|--------------------------|
------------------|-------------------|--------------------------|--------------------------|


                                       
------------------|------------------||
------------------|------------------||
------------------|------------------||
------------------|------------------||
------------------|------------------||
------------------|------------------||


Guitar 2
Open E Tuning


E ||------------------|------------------|------------------|------------------|
B ||------------------|------------------|------------------|------------------|
G#||------------------|------------------|------------------|------------------|
E ||------------------|------------------|------------------|------------------|
B ||------------------|------------------|------------------|------------------|
E ||------------------|------------------|------------------|------------------|


                                                          Faster
------------------|------------------|------------------|------------------|
------------------|------------------|------------------|------------------|
------------------|------------------|------------------|------------------|
------------------|------------------|------------------|------------------|
------------------|------------------|------------------|------------------|
------------------|------------------|------------------|------------------|


                                                                           4x
------------------||---0--0--0--0--7--7--7--7--|--3--3--3--9--9--9--9--9---||
------------------||---0--0--0--0--7--7--7--7--|--3--3--3--9--9--9--9--9---||
------------------||*--0--0--0--0--7--7--7--7--|--3--3--3--9--9--9--9--9--*||
------------------||*--0--0--0--0--7--7--7--7--|--3--3--3--9--9--9--9--9--*||
------------------||---0--0--0--0--7--7--7--7--|--3--3--3--9--9--9--9--9---||
------------------||---0--0--0--0--7--7--7--7--|--3--3--3--9--9--9--9--9---||


                                                                             
--0----------------|------------------|------------------|------------------|
--0----------------|------------------|------------------|------------------|
--0----------------|------------------|------------------|------------------|
--0----------------|------------------|------------------|------------------|
--0----------------|------------------|------------------|------------------|
--0----------------|------------------|------------------|------------------|


                                                                            
------------------|------------------|------------------|------------------|
------------------|------------------|------------------|------------------|
------------------|------------------|------------------|------------------|
------------------|------------------|------------------|------------------|
------------------|------------------|------------------|------------------|
------------------|------------------|------------------|------------------|


                                                        4x                            
|---0--0--0--0--7--7--7--7--|--3--3--3--9--9--9--9--9---||---0--0--0--0--7--7--7--7--|
|---0--0--0--0--7--7--7--7--|--3--3--3--9--9--9--9--9---||---0--0--0--0--7--7--7--7--|
|*--0--0--0--0--7--7--7--7--|--3--3--3--9--9--9--9--9--*||*--0--0--0--0--7--7--7--7--|
|*--0--0--0--0--7--7--7--7--|--3--3--3--9--9--9--9--9--*||*--0--0--0--0--7--7--7--7--|
|---0--0--0--0--7--7--7--7--|--3--3--3--9--9--9--9--9---||---0--0--0--0--7--7--7--7--|
|---0--0--0--0--7--7--7--7--|--3--3--3--9--9--9--9--9---||---0--0--0--0--7--7--7--7--|


                           4x                                                         
--3--3--3--9--9--9--9--9---||---0--0--0--0--7--7--7--7--|--3--3--3--9--9--9--9--9---||
--3--3--3--9--9--9--9--9---||---0--0--0--0--7--7--7--7--|--3--3--3--9--9--9--9--9---||
--3--3--3--9--9--9--9--9--*||*--0--0--0--0--7--7--7--7--|--3--3--3--9--9--9--9--9--*||
--3--3--3--9--9--9--9--9--*||*--0--0--0--0--7--7--7--7--|--3--3--3--9--9--9--9--9--*||
--3--3--3--9--9--9--9--9---||---0--0--0--0--7--7--7--7--|--3--3--3--9--9--9--9--9---||
--3--3--3--9--9--9--9--9---||---0--0--0--0--7--7--7--7--|--3--3--3--9--9--9--9--9---||


                                                                                    
---0--0--0--0--7--7--7--7--|--3--3--3--9--9--9--9--9---||--0--0--0--0--7--7--7--7--|
---0--0--0--0--7--7--7--7--|--3--3--3--9--9--9--9--9---||--0--0--0--0--7--7--7--7--|
*--0--0--0--0--7--7--7--7--|--3--3--3--9--9--9--9--9--*||--0--0--0--0--7--7--7--7--|
*--0--0--0--0--7--7--7--7--|--3--3--3--9--9--9--9--9--*||--0--0--0--0--7--7--7--7--|
---0--0--0--0--7--7--7--7--|--3--3--3--9--9--9--9--9---||--0--0--0--0--7--7--7--7--|
---0--0--0--0--7--7--7--7--|--3--3--3--9--9--9--9--9---||--0--0--0--0--7--7--7--7--|


                                                                                     
--3--3--3--9--9--9--9--9--|--0----------------|------------------|------------------|
--3--3--3--9--9--9--9--9--|--0----------------|------------------|------------------|
--3--3--3--9--9--9--9--9--|--0----------------|------------------|------------------|
--3--3--3--9--9--9--9--9--|--0----------------|------------------|------------------|
--3--3--3--9--9--9--9--9--|--0----------------|------------------|------------------|
--3--3--3--9--9--9--9--9--|--0----------------|------------------|------------------|


                                                                            
------------------|------------------|------------------|------------------|
------------------|------------------|------------------|------------------|
------------------|------------------|------------------|------------------|
------------------|------------------|------------------|------------------|
------------------|------------------|------------------|------------------|
------------------|------------------|------------------|------------------|


                                                                           4x
------------------||---0--0--0--0--7--7--7--7--|--3--3--3--9--9--9--9--9---||
------------------||---0--0--0--0--7--7--7--7--|--3--3--3--9--9--9--9--9---||
------------------||*--0--0--0--0--7--7--7--7--|--3--3--3--9--9--9--9--9--*||
------------------||*--0--0--0--0--7--7--7--7--|--3--3--3--9--9--9--9--9--*||
------------------||---0--0--0--0--7--7--7--7--|--3--3--3--9--9--9--9--9---||
------------------||---0--0--0--0--7--7--7--7--|--3--3--3--9--9--9--9--9---||


Much slower                                                                                       
----------------|----------------|----------------|----------------|------------------|
----------------|----------------|----------------|----------------|------------------|
----------------|----------------|----------------|----------------|------------------|
----------------|----------------|----------------|----------------|------------------|
----------------|----------------|----------------|----------------|------------------|
----------------|----------------|----------------|----------------|------------------|


                                                           Faster                           
------------------|------------------|------------------||---0--0--0--0--6--6--6--6--|
------------------|------------------|------------------||---0--0--0--0--6--6--6--6--|
------------------|------------------|------------------||*--0--0--0--0--6--6--6--6--|
------------------|------------------|------------------||*--0--0--0--0--6--6--6--6--|
------------------|------------------|------------------||---0--0--0--0--6--6--6--6--|
------------------|------------------|------------------||---0--0--0--0--6--6--6--6--|


                           4x                                                      12x
--3--3--3--3--3--3--3--3---||---0--0--0--0--7--7--7--7--|--3--3--3--9--9--9--9--9---||
--3--3--3--3--3--3--3--3---||---0--0--0--0--7--7--7--7--|--3--3--3--9--9--9--9--9---||
--3--3--3--3--3--3--3--3--*||*--0--0--0--0--7--7--7--7--|--3--3--3--9--9--9--9--9--*||
--3--3--3--3--3--3--3--3--*||*--0--0--0--0--7--7--7--7--|--3--3--3--9--9--9--9--9--*||
--3--3--3--3--3--3--3--3---||---0--0--0--0--7--7--7--7--|--3--3--3--9--9--9--9--9---||
--3--3--3--3--3--3--3--3---||---0--0--0--0--7--7--7--7--|--3--3--3--9--9--9--9--9---||


                                                       4x                            
---0--0--0--0--7--7--7--7--|--3--3--3--9--9--9--9--9---||---0--0--0--0--7--7--7--7--|
---0--0--0--0--7--7--7--7--|--3--3--3--9--9--9--9--9---||---0--0--0--0--7--7--7--7--|
*--0--0--0--0--7--7--7--7--|--3--3--3--9--9--9--9--9--*||*--0--0--0--0--7--7--7--7--|
*--0--0--0--0--7--7--7--7--|--3--3--3--9--9--9--9--9--*||*--0--0--0--0--7--7--7--7--|
---0--0--0--0--7--7--7--7--|--3--3--3--9--9--9--9--9---||---0--0--0--0--7--7--7--7--|
---0--0--0--0--7--7--7--7--|--3--3--3--9--9--9--9--9---||---0--0--0--0--7--7--7--7--|


                                                                                    4x
--3--3--3--9--9--9--9--9---||---0--0--0--0--7--7--7--7--|--3--3--3--9--9--9--9--9---||
--3--3--3--9--9--9--9--9---||---0--0--0--0--7--7--7--7--|--3--3--3--9--9--9--9--9---||
--3--3--3--9--9--9--9--9--*||*--0--0--0--0--7--7--7--7--|--3--3--3--9--9--9--9--9--*||
--3--3--3--9--9--9--9--9--*||*--0--0--0--0--7--7--7--7--|--3--3--3--9--9--9--9--9--*||
--3--3--3--9--9--9--9--9---||---0--0--0--0--7--7--7--7--|--3--3--3--9--9--9--9--9---||
--3--3--3--9--9--9--9--9---||---0--0--0--0--7--7--7--7--|--3--3--3--9--9--9--9--9---||


                     * (Pull finger off of strings for feedback) 
------------------|-------------------|--0--0--0--0--7--7--7--7--|--3--3--3--9--9--9--9--9--|
------------------|-------------------|--0--0--0--0--7--7--7--7--|--3--3--3--9--9--9--9--9--|
------------------|-------------------|--0--0--0--0--7--7--7--7--|--3--3--3--9--9--9--9--9--|
------------------|--0----------------|--0--0--0--0--7--7--7--7--|--3--3--3--9--9--9--9--9--|
------------------|--0----------------|--0--0--0--0--7--7--7--7--|--3--3--3--9--9--9--9--9--|
------------------|-------------------|--0--0--0--0--7--7--7--7--|--3--3--3--9--9--9--9--9--|

http://www.stopforthatdog.com
http://thatdog.net
http://www.annawaronker.com
Comments