That Dog - Lip Gloss Chords & Tabs

 

Lip Gloss Chords & Tabs

That Dog Chords & Tabs

Version: 1 Type: Bass Tab 0 ratings
1 star 2 stars 3 stars 4 stars 5 stars
comments

Lip Gloss Bass Tab

that dog - lip gloss

Submitted by: Alex Getts. None of this is my own work, Kudos to those that transcribed this.
I am only responsible for submitting this.

transcribed by: aaron wilson (amiloudenough@hotmail.com)

Bass
Standard Tuning

G||------------------|------------------|------------------|------------------|
D||------------------|------------------|------------------|------------------|
A||------------------|------------------|------------------|------------------|
E||------------------|------------------|------------------|------------------|


                                                                              
--------------------|------------------|------------------|------------------|
--14----------------|------------------|------------------|------------------|
--------------------|------------------|------------------|------------------|
--------------------|------------------|------------------|------------------|


Faster                                                                           4x
------------------||---------------------------|---------------------------||
------------------||*--------------------------|--------------------------*||
------------------||*--------------------------|--------------------------*||
------------------||---0--0--0--7--7--7--7--3--|--3--3--3--9--9--9--9--9---||


                                                                                 
--------------------------|--------------------------|--------------------------|
--------------------------|--------------------------|--------------------------|
--------------------------|--------------------------|--------------------------|
--0--0--0--7--7--7--7--3--|--3--3--3--9--9--9--9--9--|--0--0--0--7--7--7--7--3--|


                                                                                 
--------------------------|--------------------------|--------------------------|
--------------------------|--------------------------|--------------------------|
--------------------------|--------------------------|--------------------------|
--3--3--3--9--9--9--9--9--|--0--0--0--7--7--7--7--3--|--3--3--3--9--9--9--9--9--|


                                                                                   
--------------------------|--------------------------||---------------------------|
--------------------------|--------------------------||*--------------------------|
--------------------------|--------------------------||*--------------------------|
--0--0--0--7--7--7--7--3--|--3--3--3--9--9--9--9--9--||---0--0--0--7--7--7--7--3--|


                           4x                                                       4x
---------------------------||---------------------------|---------------------------||
--------------------------*||*--------------------------|--------------------------*||
--------------------------*||*--------------------------|--------------------------*||
--3--3--3--9--9--9--9--9---||---0--0--0--7--7--7--7--3--|--3--3--3--9--9--9--9--9---||


                                                                                     
---------------------------|---------------------------||---------------------------|
*--------------------------|--------------------------*||*--------------------------|
*--------------------------|--------------------------*||*--------------------------|
---0--0--0--7--7--7--7--3--|--3--3--3--9--9--9--9--9---||---0--0--0--7--7--7--7--3--|


                                                                                   
---------------------------||--------------------------|--------------------------|
--------------------------*||--------------------------|--------------------------|
--------------------------*||--------------------------|--------------------------|
--3--3--3--9--9--9--9--9---||--0--0--0--7--7--7--7--3--|--3--3--3--9--9--9--9--9--|

[ Tab from: http://www.guitartabs.cc/tabs/t/that_dog/lip_gloss_btab.html ]
                                                                                 
--------------------------|--------------------------|--------------------------|
--------------------------|--------------------------|--------------------------|
--------------------------|--------------------------|--------------------------|
--0--0--0--7--7--7--7--3--|--3--3--3--9--9--9--9--9--|--0--0--0--7--7--7--7--3--|


                                                                                 
--------------------------|--------------------------|--------------------------|
--------------------------|--------------------------|--------------------------|
--------------------------|--------------------------|--------------------------|
--3--3--3--9--9--9--9--9--|--0--0--0--7--7--7--7--3--|--3--3--3--9--9--9--9--9--|


                                                                                   
--------------------------|--------------------------||---------------------------|
--------------------------|--------------------------||*--------------------------|
--------------------------|--------------------------||*--------------------------|
--0--0--0--7--7--7--7--3--|--3--3--3--9--9--9--9--9--||---0--0--0--7--7--7--7--3--|


                           4x Much slower                                          
---------------------------||---------------------|---------------------|
--------------------------*||---------------------|---------------------|
--------------------------*||-----------1---------|-----------1---------|
--3--3--3--9--9--9--9--9---||--0--0--0-----3------|--0--0--0-----3------|


                                                                     
---------------------|---------------------|------------------------|
---------------------|---------------------|------------------------|
-----------1---------|-----------1---------|-----------1-------1----|
--0--0--0-----3------|--0--0--0-----3------|--0--0--0-----3---------|


                                                                          
------------------------|------------------------|-----------------------|
------------------------|------------------------|-----------------------|
-----------1-------1----|-----------1-------1----|-----------1-----------|
--0--0--0-----3---------|--0--0--0-----3---------|--0--0--0-----3--------|


    Faster                                       4x                            
|---------------------------|---------------------------||---------------------------|
|*--------------------------|--------------------------*||*--------------------------|
|*--------------------------|--------------------------*||*--------------------------|
|---0--0--0--0--6--6--6--6--|--3--3--3--3--3--3--3--3---||---0--0--0--7--7--7--7--3--|


                          12x                                                       4x
---------------------------||---------------------------|---------------------------||
--------------------------*||*--------------------------|--------------------------*||
--------------------------*||*--------------------------|--------------------------*||
--3--3--3--9--9--9--9--9---||---0--0--0--7--7--7--7--3--|--3--3--3--9--9--9--9--9---||


                                                                                     
---------------------------|---------------------------||---------------------------|
*--------------------------|--------------------------*||*--------------------------|
*--------------------------|--------------------------*||*--------------------------|
---0--0--0--7--7--7--7--3--|--3--3--3--9--9--9--9--9---||---0--0--0--7--7--7--7--3--|


                           4x                                      
---------------------------||------------------|------------------|
--------------------------*||------------------|------------------|
--------------------------*||------------------|------------------|
--3--3--3--9--9--9--9--9---||------------------|------------------|


                                                                                             
--------------------------|--------------------------|------------------|------------------||
--------------------------|--------------------------|------------------|------------------||
--------------------------|--------------------------|------------------|------------------||
--0--0--0--7--7--7--7--3--|--3--3--3--9--9--9--9--9--|------------------|------------------||


http://www.stopforthatdog.com
http://thatdog.net
http://www.annawaronker.com
Comments