That Dog - Im Gonna See You Chords & Tabs

 

Im Gonna See You Chords & Tabs

That Dog Chords & Tabs

Version: 1 Type: Tab 0 ratings
1 star 2 stars 3 stars 4 stars 5 stars
comments

Im Gonna See You Tab

that dog - i'm gonna see you

Submitted by: Alex Getts. None of this is my own work, Kudos to those that transcribed this.
I am only responsible for submitting this.

transcribed by: aaron wilson (amiloudenough@hotmail.com)

Guitar 
Open E Tuning

E ||--------------------------|----------------------------------|--------------------------|
B ||--------------------------|----------------------------------|--------------------------|
G#||--------------------------|----------------------------------|--------------------------|
E ||--------------------------|----------------------------------|--------------------------|
B ||--7--7--7--7--7--7--7--7--|--10--10--10--10--10--10--10--10--|--9--9--9--9--9--9--9--9--|
E ||--5--5--5--5--5--5--5--5--|--8---8---8---8---8---8---8---8---|--0--0--0--0--0--0--0--0--|


                                                                                         
--------------------------|--------------------------|----------------------------------|
--------------------------|--------------------------|----------------------------------|
--------------------------|--------------------------|----------------------------------|
--------------------------|--------------------------|----------------------------------|
--7--7--7--7--7--5--5--0--|--7--7--7--7--7--7--7--7--|--10--10--10--10--10--10--10--10--|
--0--0--0--0--0--0--0--0--|--5--5--5--5--5--5--5--5--|--8---8---8---8---8---8---8---8---|


                                                                                 
--------------------------|--------------------------|--------------------------|
--------------------------|--------------------------|--------------------------|
--------------------------|--------------------------|--------------------------|
--------------------------|--------------------------|--------------------------|
--9--9--9--9--9--9--9--9--|--7--7--7--7--7--5--5--0--|--7--7--7--7--7--7--7--7--|
--0--0--0--0--0--0--0--0--|--0--0--0--0--0--0--0--0--|--5--5--5--5--5--5--5--5--|


                                                                                         
----------------------------------|--------------------------|--------------------------|
----------------------------------|--------------------------|--------------------------|
----------------------------------|--------------------------|--------------------------|
----------------------------------|--------------------------|--------------------------|
--10--10--10--10--10--10--10--10--|--9--9--9--9--9--9--9--9--|--7--7--7--7--7--5--5--0--|
--8---8---8---8---8---8---8---8---|--0--0--0--0--0--0--0--0--|--0--0--0--0--0--0--0--0--|


                                                                                         
--------------------------|----------------------------------|--------------------------|
--------------------------|----------------------------------|--------------------------|
--------------------------|----------------------------------|--------------------------|
--------------------------|----------------------------------|--------------------------|
--7--7--7--7--7--7--7--7--|--10--10--10--10--10--10--10--10--|--9--9--9--9--9--9--9--9--|
--5--5--5--5--5--5--5--5--|--8---8---8---8---8---8---8---8---|--0--0--0--0--0--0--0--0--|


                                                                                         
--------------------------|--------------------------|----------------------------------|
--------------------------|--------------------------|----------------------------------|
--------------------------|--------------------------|----------------------------------|
--------------------------|--------------------------|----------------------------------|
--7--7--7--7--7--5--5--0--|--7--7--7--7--7--7--7--7--|--10--10--10--10--10--10--10--10--|
--0--0--0--0--0--0--0--0--|--5--5--5--5--5--5--5--5--|--8---8---8---8---8---8---8---8---|


                                                                                 
--------------------------|--------------------------|--------------------------|
--------------------------|--------------------------|--------------------------|
--------------------------|--------------------------|--------------------------|
--------------------------|--------------------------|-----7--------------------|
--5--5--5--5--5--5--5--5--|--2--2--2--2--2--2--2--2--|--7--7--7--7--7--7--7--7--|
--5--5--5--5--5--5--5--5--|--2--2--2--2--2--2--2--2--|--7--7--7--7--7--7--7--7--|


                                                                                 
--------------------------|--------------------------|--------------------------|
--------------------------|--------------------------|--------------------------|
--3--------3--------------|--------------------------|--------------------------|
--0--0--0--0--0--0--0--0--|--2--2--2--2--2--2--2--2--|--5--5--5--5--5--5--5--5--|
--0--0--0--0--0--0--0--0--|--2--2--2--0--0--0--0--0--|--3--3--3--3--3--3--3--3--|
--0--0--0--0--0--0--0--0--|--2--2--2--2--2--2--2--2--|--5--5--5--5--5--5--5--5--|


                                                                                 
--------------------------|--------------------------|--------------------------|
--------------------------|--------------------------|--------------------------|
--------------------------|--------------------------|--------------------------|
--5--5--5--5--5-----------|--5--5--5--5--5-----------|--------------------------|
--5--5--5--5--5--0--0--0--|--5--5--5--5--5--0--0--0--|--5--5--5--5--5--5--5--5--|
--5--5--5--5--5--0--0--0--|--5--5--5--5--5--0--0--0--|--5--5--5--5--5--5--5--5--|


                                                                                 
--------------------------|--------------------------|--------------------------|
--------------------------|--------------------------|--------------------------|
--------------------------|--------------------------|--3--------3--------------|
--------------------------|-----7--------------------|--0--0--0--0--0--0--0--0--|
--2--2--2--2--2--2--2--2--|--7--7--7--7--7--7--7--7--|--0--0--0--0--0--0--0--0--|
--2--2--2--2--2--2--2--2--|--7--7--7--7--7--7--7--7--|--0--0--0--0--0--0--0--0--|


                                                                                 
--------------------------|--------------------------|--------------------------|
--------------------------|--------------------------|--------------------------|
--------------------------|--------------------------|--------------------------|
--2--2--2--2--2--2--2--2--|--5--5--5--5--5--5--5--5--|--5--5--5--5--5-----------|
--2--2--2--0--0--0--0--0--|--3--3--3--3--3--3--3--3--|--5--5--5--5--5--0--0--0--|
--2--2--2--2--2--2--2--2--|--5--5--5--5--5--5--5--5--|--5--5--5--5--5--0--0--0--|


                                                                                 
--------------------------|--------------------------|--------------------------|
--------------------------|--------------------------|--------------------------|
--------------------------|--------------------------|--------------------------|
--5--5--5--5--5-----------|--5--5--5--5--5--5--5--5--|--4--4--4--4--4--4--4--4--|
--5--5--5--5--5--0--0--0--|--3--3--3--3--3--3--3--3--|--2--2--2--2--2--2--2--2--|
--5--5--5--5--5--0--0--0--|--------------------------|--------------------------|


                                                                                 
--------------------------|--------------------------|--------------------------|
--------------------------|--------------------------|--------------------------|
--------------------------|--------------------------|--------------------------|
--5--5--5--5--5--5--5--5--|--3--3--3--3--3--3--3--3--|--5--5--5--5--5--5--5--5--|
--3--3--3--3--3--3--3--3--|--1--1--1--1--1--1--1--1--|--3--3--3--3--3--3--3--3--|
--------------------------|--------------------------|--------------------------|


                                                                                 
--------------------------|--------------------------|--------------------------|
--------------------------|--------------------------|--------------------------|
--------------------------|--------------------------|--------------------------|
--2--2--2--2--2--2--2--2--|--------------------------|--3--3--3--3--3--3--3--3--|
--0--0--0--0--0--0--0--0--|--5--5--5--5--5--5--5--5--|--1--1--1--1--1--1--1--1--|
--------------------------|--5--5--5--5--5--5--5--5--|--------------------------|


                                                                                 
--------------------------|--------------------------|--------------------------|
--------------------------|--------------------------|--------------------------|
--------------------------|--------------------------|--------------------------|
--------------------------|--------------------------|--------------------------|
--0--0--0--0--0--0--0--0--|--4--4--4--4--4--4--4--4--|--5--5--5--5--5--5--5--5--|
--0--0--0--0--0--0--0--0--|--4--4--4--4--4--4--4--4--|--5--5--5--5--5--5--5--5--|


                                                                                 
--------------------------|--------------------------|--------------------------|
--------------------------|--------------------------|--------------------------|
--------------------------|--------------------------|--------------------------|
--3--3--3--3--3--3--3--3--|--------------------------|--------------------------|
--1--1--1--1--1--1--1--1--|--0--0--0--0--0--0--0--0--|--4--4--4--4--4--4--4--4--|
--------------------------|--0--0--0--0--0--0--0--0--|--4--4--4--4--4--4--4--4--|


                                                                                         
--------------------------|----------------------------------|--------------------------|
--------------------------|----------------------------------|--------------------------|
--------------------------|----------------------------------|--------------------------|
--------------------------|----------------------------------|--------------------------|
--7--7--7--7--7--7--7--7--|--10--10--10--10--10--10--10--10--|--9--9--9--9--9--9--9--9--|
--5--5--5--5--5--5--5--5--|--8---8---8---8---8---8---8---8---|--0--0--0--0--0--0--0--0--|


                                                                                         
--------------------------|--------------------------|----------------------------------|
--------------------------|--------------------------|----------------------------------|
--------------------------|--------------------------|----------------------------------|
--------------------------|--------------------------|----------------------------------|
--7--7--7--7--7--5--5--0--|--7--7--7--7--7--7--7--7--|--10--10--10--10--10--10--10--10--|
--0--0--0--0--0--0--0--0--|--5--5--5--5--5--5--5--5--|--8---8---8---8---8---8---8---8---|


                                                                                 
--------------------------|--------------------------|--------------------------|
--------------------------|--------------------------|--------------------------|
--------------------------|--------------------------|--------------------------|
--------------------------|--------------------------|--------------------------|
--9--9--9--9--9--9--9--9--|--7--7--7--7--7--5--5--0--|--7--7--7--7--7--7--7--7--|
--0--0--0--0--0--0--0--0--|--0--0--0--0--0--0--0--0--|--5--5--5--5--5--5--5--5--|


                                                                                         
----------------------------------|--------------------------|--------------------------|
----------------------------------|--------------------------|--------------------------|
----------------------------------|--------------------------|--------------------------|
----------------------------------|--------------------------|--------------------------|
--10--10--10--10--10--10--10--10--|--5--5--5--5--5--5--5--5--|--2--2--2--2--2--2--2--2--|
--8---8---8---8---8---8---8---8---|--5--5--5--5--5--5--5--5--|--2--2--2--2--2--2--2--2--|

[ Tab from: http://www.guitartabs.cc/tabs/t/that_dog/im_gonna_see_you_tab.html ]
                                                                                 
--------------------------|--------------------------|--------------------------|
--------------------------|--------------------------|--------------------------|
--------------------------|--3--------3--------------|--------------------------|
-----7--------------------|--0--0--0--0--0--0--0--0--|--2--2--2--2--2--2--2--2--|
--7--7--7--7--7--7--7--7--|--0--0--0--0--0--0--0--0--|--2--2--2--0--0--0--0--0--|
--7--7--7--7--7--7--7--7--|--0--0--0--0--0--0--0--0--|--2--2--2--2--2--2--2--2--|


                                                                                 
--------------------------|--------------------------|--------------------------|
--------------------------|--------------------------|--------------------------|
--------------------------|--------------------------|--------------------------|
--5--5--5--5--5--5--5--5--|--5--5--5--5--5-----------|--5--5--5--5--5-----------|
--3--3--3--3--3--3--3--3--|--5--5--5--5--5--0--0--0--|--5--5--5--5--5--0--0--0--|
--5--5--5--5--5--5--5--5--|--5--5--5--5--5--0--0--0--|--5--5--5--5--5--0--0--0--|


                                                                                 
--------------------------|--------------------------|--------------------------|
--------------------------|--------------------------|--------------------------|
--------------------------|--------------------------|--------------------------|
--------------------------|--------------------------|-----7--------------------|
--5--5--5--5--5--5--5--5--|--2--2--2--2--2--2--2--2--|--7--7--7--7--7--7--7--7--|
--5--5--5--5--5--5--5--5--|--2--2--2--2--2--2--2--2--|--7--7--7--7--7--7--7--7--|


                                                                                 
--------------------------|--------------------------|--------------------------|
--------------------------|--------------------------|--------------------------|
--3--------3--------------|--------------------------|--------------------------|
--0--0--0--0--0--0--0--0--|--2--2--2--2--2--2--2--2--|--5--5--5--5--5--5--5--5--|
--0--0--0--0--0--0--0--0--|--2--2--2--0--0--0--0--0--|--3--3--3--3--3--3--3--3--|
--0--0--0--0--0--0--0--0--|--2--2--2--2--2--2--2--2--|--5--5--5--5--5--5--5--5--|


                                                                                 
--------------------------|--------------------------|--------------------------|
--------------------------|--------------------------|--------------------------|
--------------------------|--------------------------|--------------------------|
--5--5--5--5--5-----------|--5--5--5--5--5-----------|--5--5--5--5--5--5--5--5--|
--5--5--5--5--5--0--0--0--|--5--5--5--5--5--0--0--0--|--3--3--3--3--3--3--3--3--|
--5--5--5--5--5--0--0--0--|--5--5--5--5--5--0--0--0--|--------------------------|


                                                                                 
--------------------------|--------------------------|--------------------------|
--------------------------|--------------------------|--------------------------|
--------------------------|--------------------------|--------------------------|
--4--4--4--4--4--4--4--4--|--5--5--5--5--5--5--5--5--|--3--3--3--3--3--3--3--3--|
--2--2--2--2--2--2--2--2--|--3--3--3--3--3--3--3--3--|--1--1--1--1--1--1--1--1--|
--------------------------|--------------------------|--------------------------|


                                                                                 
--------------------------|--------------------------|--------------------------|
--------------------------|--------------------------|--------------------------|
--------------------------|--------------------------|--------------------------|
--5--5--5--5--5--5--5--5--|--2--2--2--2--2--2--2--2--|--------------------------|
--3--3--3--3--3--3--3--3--|--0--0--0--0--0--0--0--0--|--5--5--5--5--5--5--5--5--|
--------------------------|--------------------------|--5--5--5--5--5--5--5--5--|


                                                                                 
--------------------------|--------------------------|--------------------------|
--------------------------|--------------------------|--------------------------|
--------------------------|--------------------------|--------------------------|
--3--3--3--3--3--3--3--3--|--------------------------|--------------------------|
--1--1--1--1--1--1--1--1--|--0--0--0--0--0--0--0--0--|--4--4--4--4--4--4--4--4--|
--------------------------|--0--0--0--0--0--0--0--0--|--4--4--4--4--4--4--4--4--|


                                                                                 
--------------------------|--------------------------|--------------------------|
--------------------------|--------------------------|--------------------------|
--------------------------|--------------------------|--------------------------|
--------------------------|--3--3--3--3--3--3--3--3--|--------------------------|
--5--5--5--5--5--5--5--5--|--1--1--1--1--1--1--1--1--|--0--0--0--0--0--0--0--0--|
--5--5--5--5--5--5--5--5--|--------------------------|--0--0--0--0--0--0--0--0--|


                                                                                         
--------------------------|--------------------------|----------------------------------|
--------------------------|--------------------------|----------------------------------|
--------------------------|--------------------------|----------------------------------|
--------------------------|--------------------------|----------------------------------|
--4--4--4--4--4--4--4--4--|--7--7--7--7--7--7--7--7--|--10--10--10--10--10--10--10--10--|
--4--4--4--4--4--4--4--4--|--5--5--5--5--5--5--5--5--|--8---8---8---8---8---8---8---8---|


                                                                                 
--------------------------|--------------------------|--------------------------|
--------------------------|--------------------------|--------------------------|
--------------------------|--------------------------|--------------------------|
--------------------------|--------------------------|--------------------------|
--9--9--9--9--9--9--9--9--|--7--7--7--7--7--5--5--0--|--7--7--7--7--7--7--7--7--|
--0--0--0--0--0--0--0--0--|--0--0--0--0--0--0--0--0--|--5--5--5--5--5--5--5--5--|


                                                                                         
----------------------------------|--------------------------|--------------------------|
----------------------------------|--------------------------|--------------------------|
----------------------------------|--------------------------|--------------------------|
----------------------------------|--------------------------|--------------------------|
--10--10--10--10--10--10--10--10--|--9--9--9--9--9--9--9--9--|--7--7--7--7--7--5--5--0--|
--8---8---8---8---8---8---8---8---|--0--0--0--0--0--0--0--0--|--0--0--0--0--0--0--0--0--|


                                                                                         
--------------------------|----------------------------------|--------------------------|
--------------------------|----------------------------------|--------------------------|
--------------------------|----------------------------------|--------------------------|
--------------------------|----------------------------------|--------------------------|
--7--7--7--7--7--7--7--7--|--10--10--10--10--10--10--10--10--|--9--9--9--9--9--9--9--9--|
--5--5--5--5--5--5--5--5--|--8---8---8---8---8---8---8---8---|--0--0--0--0--0--0--0--0--|


                                                                                         
--------------------------|--------------------------|----------------------------------|
--------------------------|--------------------------|----------------------------------|
--------------------------|--------------------------|----------------------------------|
--------------------------|--------------------------|----------------------------------|
--7--7--7--7--7--5--5--0--|--7--7--7--7--7--7--7--7--|--10--10--10--10--10--10--10--10--|
--0--0--0--0--0--0--0--0--|--5--5--5--5--5--5--5--5--|--8---8---8---8---8---8---8---8---|


                                                                                 
--------------------------|--------------------------|--------------------------|
--------------------------|--------------------------|--------------------------|
--------------------------|--------------------------|--------------------------|
--------------------------|--------------------------|--------------------------|
--9--9--9--9--9--9--9--9--|--7--7--7--7--7--5--5--0--|--7--7--7--7--7--7--7--7--|
--0--0--0--0--0--0--0--0--|--0--0--0--0--0--0--0--0--|--5--5--5--5--5--5--5--5--|


                                                                                         
----------------------------------|--------------------------|--------------------------|
----------------------------------|--------------------------|--------------------------|
----------------------------------|--------------------------|--------------------------|
----------------------------------|--------------------------|--------------------------|
--10--10--10--10--10--10--10--10--|--9--9--9--9--9--9--9--9--|--7--7--7--7--7--5--5--0--|
--8---8---8---8---8---8---8---8---|--0--0--0--0--0--0--0--0--|--0--0--0--0--0--0--0--0--|


                                                                                         
--------------------------|----------------------------------|--------------------------|
--------------------------|----------------------------------|--------------------------|
--------------------------|----------------------------------|--------------------------|
--------------------------|----------------------------------|--------------------------|
--7--7--7--7--7--7--7--7--|--10--10--10--10--10--10--10--10--|--9--9--9--9--9--9--9--9--|
--5--5--5--5--5--5--5--5--|--8---8---8---8---8---8---8---8---|--0--0--0--0--0--0--0--0--|


                                                                                         
--------------------------|--------------------------|----------------------------------|
--------------------------|--------------------------|----------------------------------|
--------------------------|--------------------------|----------------------------------|
--------------------------|--------------------------|----------------------------------|
--7--7--7--7--7--5--5--0--|--7--7--7--7--7--7--7--7--|--10--10--10--10--10--10--10--10--|
--0--0--0--0--0--0--0--0--|--5--5--5--5--5--5--5--5--|--8---8---8---8---8---8---8---8---|


                                                                                 
--------------------------|--------------------------|--------------------------|
--------------------------|--------------------------|--------------------------|
--------------------------|--------------------------|--------------------------|
--------------------------|--------------------------|--------------------------|
--9--9--9--9--9--9--9--9--|--7--7--7--7--7--5--5--0--|--7--7--7--7--7--7--7--7--|
--0--0--0--0--0--0--0--0--|--0--0--0--0--0--0--0--0--|--5--5--5--5--5--5--5--5--|


                                                                                         
----------------------------------|--------------------------|--------------------------|
----------------------------------|--------------------------|--------------------------|
----------------------------------|--------------------------|--------------------------|
----------------------------------|--------------------------|--------------------------|
--10--10--10--10--10--10--10--10--|--9--9--9--9--9--9--9--9--|--7--7--7--7--7--5--5--0--|
--8---8---8---8---8---8---8---8---|--0--0--0--0--0--0--0--0--|--0--0--0--0--0--0--0--0--|


 Fade out...                                                                                        
--------------------------|----------------------------------|--------------------------|
--------------------------|----------------------------------|--------------------------|
--------------------------|----------------------------------|--------------------------|
--------------------------|----------------------------------|--------------------------|
--7--7--7--7--7--7--7--7--|--10--10--10--10--10--10--10--10--|--9--9--9--9--9--9--9--9--|
--5--5--5--5--5--5--5--5--|--8---8---8---8---8---8---8---8---|--0--0--0--0--0--0--0--0--|

http://www.stopforthatdog.com
http://thatdog.net
http://www.annawaronker.com
Comments