That Dog - Hes Kissing Christian Chords & Tabs

 

Hes Kissing Christian Chords & Tabs

That Dog Chords & Tabs

Version: 2 Type: Tab 0 ratings
1 star 2 stars 3 stars 4 stars 5 stars
comments

Hes Kissing Christian Tab

that dog - he's kissing christian

Submitted by: Alex Getts. None of this is my own work, Kudos to those that transcribed this.
I am only responsible for submitting this.

transcribed by: aaron wilson (amiloudenough@hotmail.com)

Guitar 1
Open E Tuning


E ||------------------|------------------|------------------------|----------------------|
B ||------------------|------------------|------------------------|----------------------|
G#||------------------|------------------|------------------------|----------------------|
E ||------------------|------------------|-------0----------0-----|-------0--------------|
B ||------------------|------------------|----0-----0----0-----0--|----0-----0----0------|
E ||------------------|------------------|------------------------|----------------------|


                                                                            
------------------|------------------|------------------|------------------|
------------------|------------------|------------------|------------------|
------------------|------------------|------------------|------------------|
------------------|------------------|------------------|------------------|
------------------|------------------|------------------|------------------|
------------------|------------------|------------------|------------------|


                                                                            
------------------|------------------|------------------|------------------|
------------------|------------------|------------------|------------------|
------------------|------------------|------------------|------------------|
------------------|------------------|------------------|------------------|
------------------|------------------|------------------|------------------|
------------------|------------------|------------------|------------------|


                                                                                 
--------------------------|--------------------------|--------------------------|
--------------------------|--------------------------|--------------------------|
--------------------------|--------------------------|--------------------------|
--------0-----------0-----|--------0-----------0-----|--------0-----------2-----|
-----7-----------0--------|-----0-----------0--------|-----0-----------2--------|
--7--------7--5--------5--|--4--------4--2--------2--|--0--------0--2--------2--|


                                                                                
-------------------------|--------------------------|--------------------------|
-------------------------|--------------------------|--------------------------|
-------------------------|--------------------------|--------------------------|
--------3--------5--5----|--------0-----------0-----|--------0-----------0-----|
-----3-----------5--5----|-----7-----------0--------|-----0-----------0--------|
--3--------3--5----------|--7--------7--5--------5--|--4--------4--2--------2--|


                                                                                
--------------------------|-----------------2--2----|--0--0--0--0--0--0--0--0--|
--------------------------|--------0--0--2--2--2----|--0--0--0--0--0--0--0--0--|
--------------------------|--0--0--0--0--2--2--2----|--0--0--0--0--0--0--0--0--|
--0--0--0--0--2--2--2--2--|--0--0--0--0--2--2--2----|--0--0--0--0--0--0--0--0--|
--0--0--0--0--2--2--2--2--|--0--0--0--0--2--2--2----|--0--0--0--0--0--0--0--0--|
--0--0--0--0--2--2--2--2--|--0--0--0--0--2--2--2----|--0--0--0--0--0--0--0--0--|


                                                                                 
--0--0--0--0--0--0--0--0--|--7--7--7--7--5--5--5--5--|--3--3--3--3--2--2--2--2--|
--0--0--0--0--0--0--0--0--|--7--7--7--7--5--5--5--5--|--3--3--3--3--2--2--2--2--|
--0--0--0--0--0--0--0--0--|--7--7--7--7--5--5--5--5--|--3--3--3--3--2--2--2--2--|
--0--0--0--0--0--0--0--0--|--7--7--7--7--5--5--5--5--|--3--3--3--3--2--2--2--2--|
--0--0--0--0--0--0--0--0--|--7--7--7--7--5--5--5--5--|--3--3--3--3--2--2--2--2--|
--0--0--0--0--0--0--0--0--|--7--7--7--7--5--5--5--5--|--3--3--3--3--2--2--2--2--|


                                                                                 
--0--0--0--0--0--0--0--0--|--0--0--0--0--0--0--0--0--|--7--7--7--7--5--5--5--5--|
--0--0--0--0--0--0--0--0--|--0--0--0--0--0--0--0--0--|--7--7--7--7--5--5--5--5--|
--0--0--0--0--0--0--0--0--|--0--0--0--0--0--0--0--0--|--7--7--7--7--5--5--5--5--|
--0--0--0--0--0--0--0--0--|--0--0--0--0--0--0--0--0--|--7--7--7--7--5--5--5--5--|
--0--0--0--0--0--0--0--0--|--0--0--0--0--0--0--0--0--|--7--7--7--7--5--5--5--5--|
--0--0--0--0--0--0--0--0--|--0--0--0--0--0--0--0--0--|--7--7--7--7--5--5--5--5--|


                                                                                
--3--3--3--2----2--2--2--|--0--0--0--0--0--0--0--0--|--0--0--0--0--0--0--0--0--|
--3--3--3--2----2--2--2--|--0--0--0--0--0--0--0--0--|--0--0--0--0--0--0--0--0--|
--3--3--3--2----2--2--2--|--0--0--0--0--0--0--0--0--|--0--0--0--0--0--0--0--0--|
--3--3--3--2----2--2--2--|--0--0--0--0--0--0--0--0--|--0--0--0--0--0--0--0--0--|
--3--3--3--2----2--2--2--|--0--0--0--0--0--0--0--0--|--0--0--0--0--0--0--0--0--|
--3--3--3--2----2--2--2--|--0--0--0--0--0--0--0--0--|--0--0--0--0--0--0--0--0--|


                                                                          
--2--2--2--2--2--2--2--2--|--2----------------|--7--7--7--7--5--5--5--5--|
--2--2--2--2--2--2--2--2--|--2----------------|--7--7--7--7--5--5--5--5--|
--2--2--2--2--2--2--2--2--|--2----------------|--7--7--7--7--5--5--5--5--|
--2--2--2--2--2--2--2--2--|--2----------------|--7--7--7--7--5--5--5--5--|
--2--2--2--2--2--2--2--2--|--2----------------|--7--7--7--7--5--5--5--5--|
--2--2--2--2--2--2--2--2--|--2----------------|--7--7--7--7--5--5--5--5--|


                                                                                     
--4--4--4--2----2--2--2--|--0--0--0--0-0-0-2-2--2--2-2-|--3--3--3--3-3-3-5-5--5--5--|
--4--4--4--2----2--2--2--|--0--0--0--0-0-0-2-2--2--2-2-|--3--3--3--3-3-3-5-5--5--5--|
--4--4--4--2----2--2--2--|--0--0--0--0-0-0-2-2--2--2-2-|--3--3--3--3-3-3-5-5--5--5--|
--4--4--4--2----2--2--2--|--0--0--0--0-0-0-2-2--2--2-2-|--3--3--3--3-3-3-5-5--5--5--|
--4--4--4--2----2--2--2--|--0--0--0--0-0-0-2-2--2--2-2-|--3--3--3--3-3-3-5-5--5--5--|
--4--4--4--2----2--2--2--|--0--0--0--0-0-0-2-2--2--2-2-|--3--3--3--3-3-3-5-5--5--5--|


                                                                                    
--------0-----------0-----|--------0-----------0-----|--0--0--0--0-0-0-2-2--2--2-2-|
--------0-----------0-----|--------0-----------0-----|--0--0--0--0-0-0-2-2--2--2-2-|
--------------------------|--------------------------|--0--0--0--0-0-0-2-2--2--2-2-|
--------------------------|--------------------------|--0--0--0--0-0-0-2-2--2--2-2-|
-----7-----------5--------|-----4-----------2--------|--0--0--0--0-0-0-2-2--2--2-2-|
--7--------7--5--------5--|--4--------4--2--------2--|--0--0--0--0-0-0-2-2--2--2-2-|


                                                                                   
--3--3--3--3-3-3-5-5--5--5--|--------0-----------0-----|--------0-----------0-----|
--3--3--3--3-3-3-5-5--5--5--|--------0-----------0-----|--------0-----------0-----|
--3--3--3--3-3-3-5-5--5--5--|--------------------------|--------------------------|
--3--3--3--3-3-3-5-5--5--5--|--------------------------|--------------------------|
--3--3--3--3-3-3-5-5--5--5--|-----7-----------5--------|-----4-----------2--------|
--3--3--3--3-3-3-5-5--5--5--|--7--------7--5--------5--|--4--------4--2--------2--|


                                                                                       
--0--0--0--0-0-0-2-2--2--2-2-|--0--0--0--0-0-0-2-2--2--2-2-|--------0-----------0-----|
--0--0--0--0-0-0-2-2--2--2-2-|--0--0--0--0-0-0-2-2--2--2-2-|--------0-----------0-----|
--0--0--0--0-0-0-2-2--2--2-2-|--0--0--0--0-0-0-2-2--2--2-2-|--------------------------|
--0--0--0--0-0-0-2-2--2--2-2-|--0--0--0--0-0-0-2-2--2--2-2-|--------------------------|
--0--0--0--0-0-0-2-2--2--2-2-|--0--0--0--0-0-0-2-2--2--2-2-|-----7-----------5--------|
--0--0--0--0-0-0-2-2--2--2-2-|--0--0--0--0-0-0-2-2--2--2-2-|--7--------7--5--------5--|


                                                                                      
--------0-----------0-----|--0--0--0--0-0-0-2-2--2--2-2-|--3--3--3--3-3-3-5-5--5--5--|
--------0-----------0-----|--0--0--0--0-0-0-2-2--2--2-2-|--3--3--3--3-3-3-5-5--5--5--|
--------------------------|--0--0--0--0-0-0-2-2--2--2-2-|--3--3--3--3-3-3-5-5--5--5--|
--------------------------|--0--0--0--0-0-0-2-2--2--2-2-|--3--3--3--3-3-3-5-5--5--5--|
-----4-----------2--------|--0--0--0--0-0-0-2-2--2--2-2-|--3--3--3--3-3-3-5-5--5--5--|
--4--------4--2--------2--|--0--0--0--0-0-0-2-2--2--2-2-|--3--3--3--3-3-3-5-5--5--5--|


                                                                                 
--------0-----------0-----|--------0-----------0-----|--------0-----------------|
--------0-----------0-----|--------0-----------0-----|--------0-----------------|
--------------------------|--------------------------|--------------------2--2--|
--------------------------|--------------------------|--------------------2--2--|
-----7-----------5--------|-----4-----------2--------|-----0--------2--2--2--2--|
--7--------7--5--------5--|--4--------4--2--------2--|--0--------0--2--2--2--2--|


                                                                        
--------0-----2--2--2----|--0--0------0--0------|--0--0------0--0------|
--------0-----2--2--2----|--0--0------0--0------|--0--0------0--0------|
--0--0--0--0--2--2--2----|--0--0------0--0------|--0--0------0--0------|
--0--0--0--0--2--2--2----|--0--0------0--0------|--0--0------0--0------|
--0--0--0--0--2--2--2----|--0--0------0--0------|--0--0------0--0------|
--0--0--0--0--2--2--2----|--0--0------0--0------|--0--0------0--0------|

[ Tab from: http://www.guitartabs.cc/tabs/t/that_dog/hes_kissing_christian_tab_ver_2.html ]
                                                                               
--7--7--7--7--5--5--5--5--|--3--3--3--3--2--2--2--2--|--0--0----0--0--0----0--|
--7--7--7--7--5--5--5--5--|--3--3--3--3--2--2--2--2--|--0--0----0--0--0----0--|
--7--7--7--7--5--5--5--5--|--3--3--3--3--2--2--2--2--|--0--0----0--0--0----0--|
--7--7--7--7--5--5--5--5--|--3--3--3--3--2--2--2--2--|--0--0----0--0--0----0--|
--7--7--7--7--5--5--5--5--|--3--3--3--3--2--2--2--2--|--0--0----0--0--0----0--|
--7--7--7--7--5--5--5--5--|--3--3--3--3--2--2--2--2--|--0--0----0--0--0----0--|


                                                                             
--0--0----0--0--0------|--7--7--7--7--5--5--5--5--|--3--3--3--2----2--2--2--|
--0--0----0--0--0------|--7--7--7--7--5--5--5--5--|--3--3--3--2----2--2--2--|
--0--0----0--0--0------|--7--7--7--7--5--5--5--5--|--3--3--3--2----2--2--2--|
--0--0----0--0--0------|--7--7--7--7--5--5--5--5--|--3--3--3--2----2--2--2--|
--0--0----0--0--0------|--7--7--7--7--5--5--5--5--|--3--3--3--2----2--2--2--|
--0--0----0--0--0------|--7--7--7--7--5--5--5--5--|--3--3--3--2----2--2--2--|


                                                                                 
--0--0--0--0--0--0--0--0--|--0--0--0--0--0--0--0--0--|--2--2--2--2--2--2--2--2--|
--0--0--0--0--0--0--0--0--|--0--0--0--0--0--0--0--0--|--2--2--2--2--2--2--2--2--|
--0--0--0--0--0--0--0--0--|--0--0--0--0--0--0--0--0--|--2--2--2--2--2--2--2--2--|
--0--0--0--0--0--0--0--0--|--0--0--0--0--0--0--0--0--|--2--2--2--2--2--2--2--2--|
--0--0--0--0--0--0--0--0--|--0--0--0--0--0--0--0--0--|--2--2--2--2--2--2--2--2--|
--0--0--0--0--0--0--0--0--|--0--0--0--0--0--0--0--0--|--2--2--2--2--2--2--2--2--|


                                                                         
--2----------------|--7--7--7--7--5--5--5--5--|--4--4--4--2----2--2--2--|
--2----------------|--7--7--7--7--5--5--5--5--|--4--4--4--2----2--2--2--|
--2----------------|--7--7--7--7--5--5--5--5--|--4--4--4--2----2--2--2--|
--2----------------|--7--7--7--7--5--5--5--5--|--4--4--4--2----2--2--2--|
--2----------------|--7--7--7--7--5--5--5--5--|--4--4--4--2----2--2--2--|
--2----------------|--7--7--7--7--5--5--5--5--|--4--4--4--2----2--2--2--|


                                                                                      
--0--0--0--0-0-0-2-2--2--2-2-|--3--3--3--3-3-3-5-5--5--5--|--------0-----------0-----|
--0--0--0--0-0-0-2-2--2--2-2-|--3--3--3--3-3-3-5-5--5--5--|--------0-----------0-----|
--0--0--0--0-0-0-2-2--2--2-2-|--3--3--3--3-3-3-5-5--5--5--|--------------------------|
--0--0--0--0-0-0-2-2--2--2-2-|--3--3--3--3-3-3-5-5--5--5--|--------------------------|
--0--0--0--0-0-0-2-2--2--2-2-|--3--3--3--3-3-3-5-5--5--5--|-----7-----------5--------|
--0--0--0--0-0-0-2-2--2--2-2-|--3--3--3--3-3-3-5-5--5--5--|--7--------7--5--------5--|


                                                                                
--------0-----------0-----|--------0-----------0-----|--------0-----------0----|
--------0-----------0-----|--------0-----------0-----|--------0-----------0----|
--------------------------|--------------------------|-------------------------|
--------------------------|--------------------------|-------------------------|
-----4-----------2--------|-----0-----------2--------|-----3-----------5-------|
--4--------4--2--------2--|--0--------0--2--------2--|--3--------3--5----------|


                                                                                
--------0-----------0-----|--------0----------0-----|--------0-----------0-----|
--------0-----------0-----|--------0----------0-----|--------0-----------0-----|
--------------------------|-------------------------|--------------------------|
--------------------------|-------------------------|--------------------------|
-----7-----------5--------|-----4----------2--------|-----0-----------2--------|
--7--------7--5--------5--|--4--------2----------2--|--0--------0--2--------2--|


                                                                                 
--------0-----------0-----|--------0-----------0-----|--------0-----------0-----|
--------0-----------0-----|--------0-----------0-----|--------0-----------0-----|
--------------------------|--------------------------|--------------------------|
--------------------------|--------------------------|--------------------------|
-----0-----------2--------|-----7-----------5--------|-----4-----------2--------|
--0--------0--2--------2--|--7--------7--5--------5--|--4--------4--2--------2--|


                                                                                
--------0-----------0-----|--------0-----------0----|--------0-----------0-----|
--------0-----------0-----|--------0-----------0----|--------0-----------0-----|
--------------------------|-------------------------|--------------------------|
--------------------------|-------------------------|--------------------------|
-----0-----------2--------|-----3-----------5-------|-----7-----------5--------|
--0--------0--2--------2--|--3--------3--5----------|--7--------7--5--------5--|


                                                                               
--------0----------0-----|--------------------------|-----------------2--2----|
--------0----------0-----|--------------------------|-----0--0--0--2--2--2----|
-------------------------|--------------------------|--0--0--0--0--2--2--2----|
-------------------------|-----0--0--0--2--2--2--2--|--0--0--0--0--2--2--2----|
-----4----------2--------|--0--0--0--0--2--2--2--2--|--0--0--0--0--2--2--2----|
--4--------2----------2--|--0--0--0--0--2--2--2--2--|--0--0--0--0--2--2--2----|


                                                                         
--0--0------0--0------|--0--0------0--0------|--7--7--7--7--5--5--5--5--|
--0--0------0--0------|--0--0------0--0------|--7--7--7--7--5--5--5--5--|
--0--0------0--0------|--0--0------0--0------|--7--7--7--7--5--5--5--5--|
--0--0------0--0------|--0--0------0--0------|--7--7--7--7--5--5--5--5--|
--0--0------0--0------|--0--0------0--0------|--7--7--7--7--5--5--5--5--|
--0--0------0--0------|--0--0------0--0------|--7--7--7--7--5--5--5--5--|


                                                                                 
--3--3--3--3--2--2--2--2--|--0--0--0--0--0--0--0--0--|--0--0--0--0--0--0--0--0--|
--3--3--3--3--2--2--2--2--|--0--0--0--0--0--0--0--0--|--0--0--0--0--0--0--0--0--|
--3--3--3--3--2--2--2--2--|--0--0--0--0--0--0--0--0--|--0--0--0--0--0--0--0--0--|
--3--3--3--3--2--2--2--2--|--0--0--0--0--0--0--0--0--|--0--0--0--0--0--0--0--0--|
--3--3--3--3--2--2--2--2--|--0--0--0--0--0--0--0--0--|--0--0--0--0--0--0--0--0--|
--3--3--3--3--2--2--2--2--|--0--0--0--0--0--0--0--0--|--0--0--0--0--0--0--0--0--|


                                                                                
--7--7--7--7--5--5--5--5--|--3--3--3--2----2--2--2--|--0--0--0--0--0--0--0--0--|
--7--7--7--7--5--5--5--5--|--3--3--3--2----2--2--2--|--0--0--0--0--0--0--0--0--|
--7--7--7--7--5--5--5--5--|--3--3--3--2----2--2--2--|--0--0--0--0--0--0--0--0--|
--7--7--7--7--5--5--5--5--|--3--3--3--2----2--2--2--|--0--0--0--0--0--0--0--0--|
--7--7--7--7--5--5--5--5--|--3--3--3--2----2--2--2--|--0--0--0--0--0--0--0--0--|
--7--7--7--7--5--5--5--5--|--3--3--3--2----2--2--2--|--0--0--0--0--0--0--0--0--|


                                                                                            
--0--0--0--0--0--0--0--0--|--2--2--2--2--2--2--2--2--|------------------|------------------|
--0--0--0--0--0--0--0--0--|--2--2--2--2--2--2--2--2--|------------------|------------------|
--0--0--0--0--0--0--0--0--|--2--2--2--2--2--2--2--2--|------------------|------------------|
--0--0--0--0--0--0--0--0--|--2--2--2--2--2--2--2--2--|------------------|------------------|
--0--0--0--0--0--0--0--0--|--2--2--2--2--2--2--2--2--|------------------|------------------|
--0--0--0--0--0--0--0--0--|--2--2--2--2--2--2--2--2--|------------------|------------------|


                                                                                       
------------------|-------0----------0-----|-------0--------------|--2----------------|
------------------|----0-----0----0-----0--|----0-----0----0------|-------------------|
------------------|------------------------|----------------------|-------------------|
------------------|------------------------|----------------------|-------------------|
------------------|------------------------|----------------------|-------------------|
------------------|------------------------|----------------------|-------------------|


                                                                             
------------------|-------------------|------------------|------------------|
------------------|--0----------------|------------------|------------------|
------------------|-------------------|------------------|------------------|
------------------|-------------------|------------------|------------------|
------------------|-------------------|------------------|------------------|
------------------|-------------------|------------------|------------------|


                                                                            
------------------|------------------|------------------|------------------|
------------------|------------------|------------------|------------------|
------------------|------------------|------------------|------------------|
------------------|------------------|------------------|------------------|
------------------|------------------|------------------|------------------|
------------------|------------------|------------------|------------------|


                                       
------------------|------------------||
------------------|------------------||
------------------|------------------||
------------------|------------------||
------------------|------------------||
------------------|------------------||


http://www.stopforthatdog.com
http://thatdog.net
http://www.annawaronker.com
Comments