That Dog - Hes Kissing Christian Chords & Tabs

 

Hes Kissing Christian Chords & Tabs

That Dog Chords & Tabs

Version: 1 Type: Bass Tab 0 ratings
1 star 2 stars 3 stars 4 stars 5 stars
comments

Hes Kissing Christian Bass Tab

that dog - he's kissing christian

Submitted by: Alex Getts. None of this is my own work, Kudos to those that transcribed this.
I am only responsible for submitting this.

transcribed by: aaron wilson (amiloudenough@hotmail.com)

Bass
Standard Tuning


G||--------11--9--------8--9--|--------8--6--------6--4--|--------4-----------4-----|
D||--9--9---------7--7--------|--6--6--------4--4--------|--2--2-----2--4--4-----4--|
A||---------------------------|--------------------------|--------------------------|
E||---------------------------|--------------------------|--------------------------|


                                                                                  
--------4-----------4-----|--------11-----------9-----|--------8-----------6-----|
--2--2-----2--4--4-----4--|--9--9------9--7--7-----7--|--6--6-----6--4--4-----4--|
--------------------------|---------------------------|--------------------------|
--------------------------|---------------------------|--------------------------|


                                                                                 
--------4-----------6-----|--------7-----------9----|--------11-----------9-----|
--2--2-----2--4--4-----4--|--5--5-----5--7--7-------|--9--9------9--7--7-----7--|
--------------------------|-------------------------|---------------------------|
--------------------------|-------------------------|---------------------------|


                                                                                
--------8-----------6-----|--------4-----------6-----|--------4-----------4----|
--6--6-----6--4--4-----4--|--2--2-----2--4--4-----4--|--2--2-----2--4--4-------|
--------------------------|--------------------------|-------------------------|
--------------------------|--------------------------|-------------------------|


                                                                                  
--------11-----------9-----|--------8-----------6-----|--------4-----------6-----|
--9--9------9--7--7-----7--|--6--6-----6--4--4-----4--|--2--2-----2--4--4-----4--|
---------------------------|--------------------------|--------------------------|
---------------------------|--------------------------|--------------------------|


                                                                                 
--------7--------9--9----|--------11-----------9-----|--------8-----------6-----|
--5--5-----5--7----------|--9--9------9--7--7-----7--|--6--6-----6--4--4-----4--|
-------------------------|---------------------------|--------------------------|
-------------------------|---------------------------|--------------------------|


                                                                                
--------------------------|-------------------------|--------------------------|
--2--2--2--2--4--4--4--4--|--2--2--2--2--4--4--4----|--------------------------|
--------------------------|-------------------------|--------------------------|
--------------------------|-------------------------|--0--0--0--0--0--0--0--0--|


                                                                                 
--------------------------|--------------------------|--------------------------|
--------------------------|--------------------------|--------------------------|
--------------------------|--------------------------|--------------------------|
--0--0--0--0--0--0--0--0--|--7--7--7--7--5--5--5--5--|--3--3--3--3--2--2--2--2--|


                                                                                 
--------------------------|--------------------------|--------------------------|
--------------------------|--------------------------|--------------------------|
--------------------------|--------------------------|--------------------------|
--0--0--0--0--0--0--0--0--|--0--0--0--0--0--0--0--0--|--7--7--7--7--5--5--5--5--|


                                                                                
-------------------------|--------------------------|--------------------------|
-------------------------|--------------------------|--------------------------|
-------------------------|--------------------------|--------------------------|
--3--3--3--2----2--2--2--|--0--0--0--0--0--0--0--0--|--0--0--0--0--0--0--0--0--|


                                                                          
--------------------------|-------------------|--------------------------|
--------------------------|-------------------|--------------------------|
--------------------------|-------------------|--------------------------|
--2--2--2--2--2--2--2--2--|--2----------------|--7--7--7--7--5--5--5--5--|


                                                                                     
-------------------------|-----------------------------|----------------------------|
-------------------------|-----------------------------|----------------------------|
-------------------------|-----------------------------|----------------------------|
--4--4--4--2----2--2--2--|--0--0--0--0-0-0-2-2--2--2-2-|--3--3--3--3-3-3-5-5--5--5--|


                                                                                    
--------------------------|--------------------------|-----------------------------|
--------------------------|--------------------------|-----------------------------|
--------9-----------7-----|--------6-----------4-----|-----------------------------|
--7--7-----7--5--5-----5--|--4--4-----4--2--2-----2--|--0--0--0--0-0-0-2-2--2--2-2-|


                                                                                   
----------------------------|--------------------------|--------------------------|
----------------------------|--------------------------|--------------------------|
----------------------------|--------9-----------7-----|--------6-----------4-----|
--3--3--3--3-3-3-5-5--5--5--|--7--7-----7--5--5-----5--|--4--4-----4--2--2-----2--|


                                                                                       
-----------------------------|-----------------------------|--------------------------|
-----------------------------|-----------------------------|--------------------------|
-----------------------------|-----------------------------|--------------------------|
--0--0--0--0-0-0-2-2--2--2-2-|--0--0--0--0-0-0-2-2--2--2-2-|--7--7--7--7--5--5--5--5--|


                                                                                      
--------------------------|-----------------------------|----------------------------|
--------------------------|-----------------------------|----------------------------|
--------------------------|-----------------------------|----------------------------|
--4--4--4--4--2--2--2--2--|--0--0--0--0-0-0-2-2--2--2-2-|--3--3--3--3-3-3-5-5--5--5--|


                                                                                 
--------------------------|--------------------------|--------------------------|
--------------------------|--------------------------|--------------------------|
--------9-----------7-----|--------6-----------4-----|--------------------------|
--7--7-----7--5--5-----5--|--4--4-----4--2--2-----2--|--0--0--0--0--2--2--2--2--|


                                                                                
-------------------------|--------------------------|--------------------------|
-------------------------|--------------------------|--------------------------|
-------------------------|--------------------------|--------------------------|
--0--0--0--0--2--2--2----|--0--0--4h-0--0--0--4h-0--|--0--0--4h-0--0--0--4h-0--|

[ Tab from: http://www.guitartabs.cc/tabs/t/that_dog/hes_kissing_christian_btab.html ]
                                                                                 
--------------------------|--------------------------|--------------------------|
--------------------------|--------------------------|--------------------------|
--------------------------|--------------------------|--------------------------|
--7--7--7--7--5--5--5--5--|--3--3--3--3--2--2--2--2--|--0--0--4h-0--0--0--4h-0--|


                                                                                
--------------------------|--------------------------|-------------------------|
--------------------------|--------------------------|-------------------------|
--------------------------|--------------------------|-------------------------|
--0--0--4h-0--0--0--4h-0--|--7--7--7--7--5--5--5--5--|--3--3--3--2----2--2--2--|


                                                                                 
--------------------------|--------------------------|--------------------------|
--------------------------|--------------------------|--------------------------|
--------------------------|--------------------------|--------------------------|
--0--0--0--0--0--0--0--0--|--0--0--0--0--0--0--0--0--|--2--2--2--2--2--2--2--2--|


                                                                         
-------------------|--------------------------|-------------------------|
-------------------|--------------------------|-------------------------|
-------------------|--------------------------|-------------------------|
--2----------------|--7--7--7--7--5--5--5--5--|--4--4--4--2----2--2--2--|


                                                                                      
-----------------------------|----------------------------|--------------------------|
-----------------------------|----------------------------|--------------------------|
-----------------------------|----------------------------|--------9-----------7-----|
--0--0--0--0-0-0-2-2--2--2-2-|--3--3--3--3-3-3-5-5--5--5--|--7--7-----7--5--5-----5--|


                                                                                 
--------------------------|--------------------------|--------------------------|
--------------------------|--------------------------|--------------------------|
--------6-----------4-----|--------------------------|--------------------------|
--4--4-----4--2--2-----2--|--0--0--0--0--2--2--2--2--|--3--3--3--3--5--5--5--5--|


                                                                                
--------------------------|-------------------------|--------------------------|
--------------------------|-------------------------|--------------------------|
--------9-----------7-----|--------6----------4-----|--------------------------|
--7--7-----7--5--5-----5--|--4--4-----2----2-----2--|--0--0--0--0--2--2--2--2--|


                                                                                 
--------------------------|--------------------------|--------------------------|
--------------------------|--------------------------|--------------------------|
--------------------------|--------------------------|--------------------------|
--0--0--0--0--2--2--2--2--|--7--7--7--7--5--5--5--5--|--4--4--4--4--2--2--2--2--|


                                                                                 
--------------------------|--------------------------|--------------------------|
--------------------------|--------------------------|--------------------------|
--------------------------|--------------------------|--------------------------|
--0--0--0--0--2--2--2--2--|--3--3--3--3--5--5--5--5--|--7--7--7--7--5--5--5--5--|


                                                                               
-------------------------|--------------------------|-------------------------|
-------------------------|--------------------------|-------------------------|
-------------------------|--------------------------|-------------------------|
--4--4--4--2----2--2--2--|--0--0--0--0--2--2--2--2--|--0--0--0--0--2--2--2----|


                                                                         
----------------------|----------------------|--------------------------|
----------------------|----------------------|--------------------------|
----------------------|----------------------|--------------------------|
--4h-0------4h-0------|--4h-0------4h-0------|--7--7--7--7--5--5--5--5--|


                                                                                 
--------------------------|--------------------------|--------------------------|
--------------------------|--------------------------|--------------------------|
--------------------------|--------------------------|--------------------------|
--3--3--3--3--2--2--2--2--|--4h-0--0--5h-0--0--7h-0--|--0--9h-0--10h-0--12\-----|


                                                                                
--------------------------|-------------------------|--------------------------|
--------------------------|-------------------------|--------------------------|
--------------------------|-------------------------|--------------------------|
--7--7--7--7--5--5--5--5--|--3--3--3--2----2--2--2--|--0--0--0--0--0--0--0--0--|


                                                                          
--------------------------|--------------------------|-------------------|
--------------------------|--------------------------|-------------------|
--------------------------|--------------------------|--9----------------|
--0--0--0--0--0--0--0--0--|--2--2--2--2--2--2--2--2/-|-------------------|


                                                                                  
--------11--9--------8--9--|--------8--6--------6--4--|--------4-----------4-----|
--9--9---------7--7--------|--6--6--------4--4--------|--2--2-----2--4--4-----4--|
---------------------------|--------------------------|--------------------------|
---------------------------|--------------------------|--------------------------|


                                                                                  
--------4-----------4-----|--------11-----------9-----|--------8-----------6-----|
--2--2-----2--4--4-----4--|--9--9------9--7--7-----7--|--6--6-----6--4--4-----4--|
--------------------------|---------------------------|--------------------------|
--------------------------|---------------------------|--------------------------|


                                                                                 
--------4-----------6-----|--------7-----------9----|--------11-----------9-----|
--2--2-----2--4--4-----4--|--5--5-----5--7--7-------|--9--9------9--7--7-----7--|
--------------------------|-------------------------|---------------------------|
--------------------------|-------------------------|---------------------------|


                                                                                
--------8-----------6-----|--------4-----------4-----|--------4-----------4----|
--6--6-----6--4--4-----4--|--2--2-----2--4--4-----4--|--2--2-----2--4--4-------|
--------------------------|--------------------------|-------------------------|
--------------------------|--------------------------|-------------------------|


                                                                            
--------11-----------9-----|--------8-----------6-----|-------------------||
--9--9------9--7--7-----7--|--6--6-----6--4--4-----4--|--2----------------||
---------------------------|--------------------------|-------------------||
---------------------------|--------------------------|-------------------||


http://www.stopforthatdog.com
http://thatdog.net
http://www.annawaronker.com
Comments