That Dog - He Rocks Chords & Tabs

 

He Rocks Chords & Tabs

That Dog Chords & Tabs

Version: 1 Type: Tab 0 ratings
1 star 2 stars 3 stars 4 stars 5 stars
comments

He Rocks Tab

that dog - he rocks

Submitted by: Alex Getts. None of this is my own work, Kudos to those that transcribed this.
I am only responsible for submitting this.

transcribed by: aaron wilson (amiloudenough@hotmail.com)

Guitar 1
Open E Tuning: Capo on II


E ||--0--0--0--0--0--0--0--0--|--0--0--0--0--0--0--0--0--|--0--0--0--0--0--0--0--0--|
B ||--0--0--0--0--0--0--0--0--|--0--0--0--0--0--0--0--0--|--0--0--0--0--0--0--0--0--|
G#||--3--3--3--3--3--3--3--3--|--7--7--7--7--7--7--7--7--|--0--0--0--0--0--0--0--0--|
E ||--0--0--0--0--0--0--0--0--|--0--0--0--0--0--0--0--0--|--0--0--0--0--0--0--0--0--|
B ||--3--3--3--3--3--3--3--3--|--7--7--7--7--7--7--7--7--|--0--0--0--0--0--0--0--0--|
E ||--3--3--3--3--3--3--3--3--|--7--7--7--7--7--7--7--7--|--0--0--0--0--0--0--0--0--|


                                                                                 
--0--0--0--0--0--0--0--0--|--0--0--0--0--0--0--0--0--|--0--0--0--0--0--0--0--0--|
--0--0--0--0--0--0--0--0--|--0--0--0--0--0--0--0--0--|--0--0--0--0--0--0--0--0--|
--1--1--1--1--1--1--1--1--|--3--3--3--3--3--3--3--3--|--7--7--7--7--7--7--7--7--|
--0--0--0--0--0--0--0--0--|--0--0--0--0--0--0--0--0--|--0--0--0--0--0--0--0--0--|
--1--1--1--1--1--1--1--1--|--3--3--3--3--3--3--3--3--|--7--7--7--7--7--7--7--7--|
--1--1--1--1--1--1--1--1--|--3--3--3--3--3--3--3--3--|--7--7--7--7--7--7--7--7--|


                                                                                 
--0--0--0--0--0--0--0--0--|--0--0--0--0--0--0--0--0--|--0--0--0--0--0--0--0--0--|
--0--0--0--0--0--0--0--0--|--0--0--0--0--0--0--0--0--|--0--0--0--0--0--0--0--0--|
--0--0--0--0--0--0--0--0--|--1--1--1--1--1--1--1--1--|--3--3--3--3--3--3--3--3--|
--0--0--0--0--0--0--0--0--|--0--0--0--0--0--0--0--0--|--0--0--0--0--0--0--0--0--|
--0--0--0--0--0--0--0--0--|--1--1--1--1--1--1--1--1--|--3--3--3--3--3--3--3--3--|
--0--0--0--0--0--0--0--0--|--1--1--1--1--1--1--1--1--|--3--3--3--3--3--3--3--3--|


                                                                                 
--0--0--0--0--0--0--0--0--|--0--0--0--0--0--0--0--0--|--0--0--0--0--0--0--0--0--|
--0--0--0--0--0--0--0--0--|--0--0--0--0--0--0--0--0--|--0--0--0--0--0--0--0--0--|
--7--7--7--7--7--7--7--7--|--0--0--0--0--0--0--0--0--|--1--1--1--1--1--1--1--1--|
--0--0--0--0--0--0--0--0--|--0--0--0--0--0--0--0--0--|--0--0--0--0--0--0--0--0--|
--7--7--7--7--7--7--7--7--|--0--0--0--0--0--0--0--0--|--1--1--1--1--1--1--1--1--|
--7--7--7--7--7--7--7--7--|--0--0--0--0--0--0--0--0--|--1--1--1--1--1--1--1--1--|


                                                                                 
--0--0--0--0--0--0--0--0--|--0--0--0--0--0--0--0--0--|--0--0--0--0--0--0--0--0--|
--0--0--0--0--0--0--0--0--|--0--0--0--0--0--0--0--0--|--0--0--0--0--0--0--0--0--|
--3--3--3--3--3--3--3--3--|--7--7--7--7--7--7--7--7--|--0--0--0--0--0--0--0--0--|
--0--0--0--0--0--0--0--0--|--0--0--0--0--0--0--0--0--|--0--0--0--0--0--0--0--0--|
--3--3--3--3--3--3--3--3--|--7--7--7--7--7--7--7--7--|--0--0--0--0--0--0--0--0--|
--3--3--3--3--3--3--3--3--|--7--7--7--7--7--7--7--7--|--0--0--0--0--0--0--0--0--|


                                                                                 
--0--0--0--0--0--0--0--0--|--0--0--0--0--0--0--0--0--|--0--0--0--0--0--0--0--0--|
--0--0--0--0--0--0--0--0--|--0--0--0--0--0--0--0--0--|--0--0--0--0--0--0--0--0--|
--1--1--1--1--1--1--1--1--|--3--3--3--3--3--3--3--3--|--7--7--7--7--7--7--7--7--|
--0--0--0--0--0--0--0--0--|--0--0--0--0--0--0--0--0--|--0--0--0--0--0--0--0--0--|
--1--1--1--1--1--1--1--1--|--3--3--3--3--3--3--3--3--|--7--7--7--7--7--7--7--7--|
--1--1--1--1--1--1--1--1--|--3--3--3--3--3--3--3--3--|--7--7--7--7--7--7--7--7--|


                                                                                 
--0--0--0--0--0--0--0--0--|--0--0--0--0--0--0--0--0--|--0--0--0--0--0--0--0--0--|
--0--0--0--0--0--0--0--0--|--0--0--0--0--0--0--0--0--|--0--0--0--0--0--0--0--0--|
--0--0--0--0--0--0--0--0--|--1--1--1--1--1--1--1--1--|--3--3--3--3--3--3--3--3--|
--0--0--0--0--0--0--0--0--|--0--0--0--0--0--0--0--0--|--0--0--0--0--0--0--0--0--|
--0--0--0--0--0--0--0--0--|--1--1--1--1--1--1--1--1--|--3--3--3--3--3--3--3--3--|
--0--0--0--0--0--0--0--0--|--1--1--1--1--1--1--1--1--|--3--3--3--3--3--3--3--3--|


                                                                                 
--0--0--0--0--0--0--0--0--|--0--0--0--0--0--0--0--0--|--0--0--0--0--0--0--0--0--|
--0--0--0--0--0--0--0--0--|--0--0--0--0--0--0--0--0--|--0--0--0--0--0--0--0--0--|
--7--7--7--7--7--7--7--7--|--0--0--0--0--0--0--0--0--|--1--1--1--1--1--1--1--1--|
--0--0--0--0--0--0--0--0--|--0--0--0--0--0--0--0--0--|--0--0--0--0--0--0--0--0--|
--7--7--7--7--7--7--7--7--|--0--0--0--0--0--0--0--0--|--1--1--1--1--1--1--1--1--|
--7--7--7--7--7--7--7--7--|--0--0--0--0--0--0--0--0--|--1--1--1--1--1--1--1--1--|


                                                                                 
--0--0--0--0--0--0--0--0--|--0--0--0--0--0--0--0--0--|--0-----------------------|
--0--0--0--0--0--0--0--0--|--0--0--0--0--0--0--0--0--|--0-----------------------|
--3--3--3--3--3--3--3--3--|--7--7--7--7--7--7--7--7--|--0-----------------------|
--0--0--0--0--0--0--0--0--|--0--0--0--0--0--0--0--0--|--0-----------------------|
--3--3--3--3--3--3--3--3--|--7--7--7--7--7--7--7--7--|--0--0--0--0--0--0--0--0--|
--3--3--3--3--3--3--3--3--|--7--7--7--7--7--7--7--7--|--0--0--0--0--0--0--0--0--|


                                                                                 
--------------------------|--------------------------|--------------------------|
--------------------------|--------------------------|--------------------------|
--------------------------|--------------------------|--------------------------|
--------------------------|--5--5--5--5--5--5--5--5--|--5--5--5--5--5--5--5--5--|
--0--0--0--0--0--0--0--0--|--3--3--3--3--3--3--3--3--|--2--2--2--2--2--2--2--2--|
--0--0--0--0--0--0--0--0--|--------------------------|--------------------------|


                                                                                 
--------------------------|--------------------------|--------------------------|
--------------------------|--------------------------|--------------------------|
--------------------------|--------------------------|--------------------------|
--0--0--0--0--0--0--0--0--|--0--0--0--0--0--0--0--0--|--5--5--5--5--5--5--5--5--|
--3--3--3--3--3--3--3--3--|--3--3--3--3--3--3--3--3--|--3--3--3--3--3--3--3--3--|
--------------------------|--------------------------|--------------------------|


                                                                                 
--------------------------|--------------------------|--------------------------|
--------------------------|--------------------------|--------------------------|
--------------------------|--------------------------|--------------------------|
--5--5--5--5--5--5--5--5--|--0--0--0--0--0--0--0--0--|--0--0--0--0--0--0--0--0--|
--2--2--2--2--2--2--2--2--|--3--3--3--3--3--3--3--3--|--3--3--3--3--3--3--3--3--|
--------------------------|--------------------------|--------------------------|


                                                                                 
--------------------------|--------------------------|--------------------------|
--------------------------|--------------------------|--------------------------|
--------------------------|--------------------------|--------------------------|
--5--5--5--5--5--5--5--5--|--5--5--5--5--5--5--5--5--|--0--0--0--0--0--0--0--0--|
--3--3--3--3--3--3--3--3--|--2--2--2--2--2--2--2--2--|--3--3--3--3--3--3--3--3--|
--------------------------|--------------------------|--------------------------|


                                                                                 
--------------------------|--------------------------|--------------------------|
--------------------------|--------------------------|--------------------------|
--------------------------|--------------------------|--------------------------|
--0--0--0--0--0--0--0--0--|--5--5--5--5--5--5--5--5--|--5--5--5--5--5--5--5--5--|
--3--3--3--3--3--3--3--3--|--3--3--3--3--3--3--3--3--|--2--2--2--2--2--2--2--2--|
--------------------------|--------------------------|--------------------------|


                                                                                
--------------------------|-------------------------|--0--0--0--0--0--0--0--0--|
--------------------------|-------------------------|--0--0--0--0--0--0--0--0--|
--------------------------|-------------------------|--3--3--3--3--3--3--3--3--|
--0--0--0--0--0--0--0--0--|--0--0--0--0--0--0--0----|--0--0--0--0--0--0--0--0--|
--3--3--3--3--3--3--3--3--|--3--3--3--3--3--3--3----|--3--3--3--3--3--3--3--3--|
--------------------------|-------------------------|--3--3--3--3--3--3--3--3--|


                                                                                 
--0--0--0--0--0--0--0--0--|--0--0--0--0--0--0--0--0--|--0--0--0--0--0--0--0--0--|
--0--0--0--0--0--0--0--0--|--0--0--0--0--0--0--0--0--|--0--0--0--0--0--0--0--0--|
--7--7--7--7--7--7--7--7--|--0--0--0--0--0--0--0--0--|--1--1--1--1--1--1--1--1--|
--0--0--0--0--0--0--0--0--|--0--0--0--0--0--0--0--0--|--0--0--0--0--0--0--0--0--|
--7--7--7--7--7--7--7--7--|--0--0--0--0--0--0--0--0--|--1--1--1--1--1--1--1--1--|
--7--7--7--7--7--7--7--7--|--0--0--0--0--0--0--0--0--|--1--1--1--1--1--1--1--1--|


                                                                                 
--0--0--0--0--0--0--0--0--|--0--0--0--0--0--0--0--0--|--0--0--0--0--0--0--0--0--|
--0--0--0--0--0--0--0--0--|--0--0--0--0--0--0--0--0--|--0--0--0--0--0--0--0--0--|
--3--3--3--3--3--3--3--3--|--7--7--7--7--7--7--7--7--|--0--0--0--0--0--0--0--0--|
--0--0--0--0--0--0--0--0--|--0--0--0--0--0--0--0--0--|--0--0--0--0--0--0--0--0--|
--3--3--3--3--3--3--3--3--|--7--7--7--7--7--7--7--7--|--0--0--0--0--0--0--0--0--|
--3--3--3--3--3--3--3--3--|--7--7--7--7--7--7--7--7--|--0--0--0--0--0--0--0--0--|


                                                                                 
--0--0--0--0--0--0--0--0--|--0--0--0--0--0--0--0--0--|--0--0--0--0--0--0--0--0--|
--0--0--0--0--0--0--0--0--|--0--0--0--0--0--0--0--0--|--0--0--0--0--0--0--0--0--|
--1--1--1--1--1--1--1--1--|--3--3--3--3--3--3--3--3--|--7--7--7--7--7--7--7--7--|
--0--0--0--0--0--0--0--0--|--0--0--0--0--0--0--0--0--|--0--0--0--0--0--0--0--0--|
--1--1--1--1--1--1--1--1--|--3--3--3--3--3--3--3--3--|--7--7--7--7--7--7--7--7--|
--1--1--1--1--1--1--1--1--|--3--3--3--3--3--3--3--3--|--7--7--7--7--7--7--7--7--|


                                                                                 
--0--0--0--0--0--0--0--0--|--0--0--0--0--0--0--0--0--|--0--0--0--0--0--0--0--0--|
--0--0--0--0--0--0--0--0--|--0--0--0--0--0--0--0--0--|--0--0--0--0--0--0--0--0--|
--0--0--0--0--0--0--0--0--|--1--1--1--1--1--1--1--1--|--3--3--3--3--3--3--3--3--|
--0--0--0--0--0--0--0--0--|--0--0--0--0--0--0--0--0--|--0--0--0--0--0--0--0--0--|
--0--0--0--0--0--0--0--0--|--1--1--1--1--1--1--1--1--|--3--3--3--3--3--3--3--3--|
--0--0--0--0--0--0--0--0--|--1--1--1--1--1--1--1--1--|--3--3--3--3--3--3--3--3--|


                                                                                 
--0--0--0--0--0--0--0--0--|--0--0--0--0--0--0--0--0--|--0--0--0--0--0--0--0--0--|
--0--0--0--0--0--0--0--0--|--0--0--0--0--0--0--0--0--|--0--0--0--0--0--0--0--0--|
--7--7--7--7--7--7--7--7--|--0--0--0--0--0--0--0--0--|--1--1--1--1--1--1--1--1--|
--0--0--0--0--0--0--0--0--|--0--0--0--0--0--0--0--0--|--0--0--0--0--0--0--0--0--|
--7--7--7--7--7--7--7--7--|--0--0--0--0--0--0--0--0--|--1--1--1--1--1--1--1--1--|
--7--7--7--7--7--7--7--7--|--0--0--0--0--0--0--0--0--|--1--1--1--1--1--1--1--1--|


                                                                                             
--0--0--0--0--0--0--0--0--|--0--0--0--0--0--0--0--0--|--0----------------|------------------|
--0--0--0--0--0--0--0--0--|--0--0--0--0--0--0--0--0--|--0----------------|------------------|
--3--3--3--3--3--3--3--3--|--7--7--7--7--7--7--7--7--|--0----------------|------------------|
--0--0--0--0--0--0--0--0--|--0--0--0--0--0--0--0--0--|--0----------------|------------------|
--3--3--3--3--3--3--3--3--|--7--7--7--7--7--7--7--7--|--0----------------|------------------|
--3--3--3--3--3--3--3--3--|--7--7--7--7--7--7--7--7--|--0----------------|------------------|


                                                                                 
--------------------------|--------------------------|--------------------------|
--------------------------|--------------------------|--------------------------|
--------------------------|--------------------------|--------------------------|
--5--5--5--5--5--5--5--5--|--5--5--5--5--5--5--5--5--|--0--0--0--0--0--0--0--0--|
--3--3--3--3--3--3--3--3--|--2--2--2--2--2--2--2--2--|--3--3--3--3--3--3--3--3--|
--------------------------|--------------------------|--------------------------|


                                                                                 
--------------------------|--------------------------|--------------------------|
--------------------------|--------------------------|--------------------------|
--------------------------|--------------------------|--------------------------|
--0--0--0--0--0--0--0--0--|--5--5--5--5--5--5--5--5--|--5--5--5--5--5--5--5--5--|
--3--3--3--3--3--3--3--3--|--3--3--3--3--3--3--3--3--|--2--2--2--2--2--2--2--2--|
--------------------------|--------------------------|--------------------------|


                                                                                 
--------------------------|--------------------------|--------------------------|
--------------------------|--------------------------|--------------------------|
--------------------------|--------------------------|--------------------------|
--0--0--0--0--0--0--0--0--|--0--0--0--0--0--0--0--0--|--5--5--5--5--5--5--5--5--|
--3--3--3--3--3--3--3--3--|--3--3--3--3--3--3--3--3--|--3--3--3--3--3--3--3--3--|
--------------------------|--------------------------|--------------------------|


                                                                                 
--------------------------|--------------------------|--------------------------|
--------------------------|--------------------------|--------------------------|
--------------------------|--------------------------|--------------------------|
--5--5--5--5--5--5--5--5--|--0--0--0--0--0--0--0--0--|--0--0--0--0--0--0--0--0--|
--2--2--2--2--2--2--2--2--|--3--3--3--3--3--3--3--3--|--3--3--3--3--3--3--3--3--|
--------------------------|--------------------------|--------------------------|


                                                                                 
--------------------------|--------------------------|--------------------------|
--------------------------|--------------------------|--------------------------|
--------------------------|--------------------------|--------------------------|
--5--5--5--5--5--5--5--5--|--5--5--5--5--5--5--5--5--|--0--0--0--0--0--0--0--0--|
--3--3--3--3--3--3--3--3--|--2--2--2--2--2--2--2--2--|--3--3--3--3--3--3--3--3--|
--------------------------|--------------------------|--------------------------|


                                                              
--------------------------|----------------------------------|
--------------------------|----------------------------------|
--------------------------|----------------------------------|
--0--0--0--0--0--0--0--0--|--10--10--10--10--10--10--10--10--|
--3--3--3--3--3--3--3--3--|--10--10--10--10--10--10--10--10--|
--------------------------|--10--10--10--10--10--10--10--10--|


                                                                                         
----------------------------------|--------------------------|--------------------------|
----------------------------------|--------------------------|--------------------------|
----------------------------------|--3--3--3--3--3--3--3--3--|--3--3--3--3--3--3--3--3--|
--10--10--10--10--10--10--10--10--|--5--5--5--5--5--5--5--5--|--5--5--5--5--5--5--5--5--|
--10--10--10--10--10--10--10--10--|--3--3--3--3--3--3--3--3--|--3--3--3--3--3--3--3--3--|
--9---9---9---9---9---9---9---9---|--3--3--3--3--3--3--3--3--|--3--3--3--3--3--3--3--3--|

[ Tab from: http://www.guitartabs.cc/tabs/t/that_dog/he_rocks_tab.html ]
                                                                      
----------------------------------|----------------------------------|
----------------------------------|----------------------------------|
----------------------------------|----------------------------------|
--10--10--10--10--10--10--10--10--|--10--10--10--10--10--10--10--10--|
--10--10--10--10--10--10--10--10--|--10--10--10--10--10--10--10--10--|
--10--10--10--10--10--10--10--10--|--9---9---9---9---9---9---9---9---|


                                                                                         
--------------------------|--------------------------|----------------------------------|
--------------------------|--------------------------|----------------------------------|
--3--3--3--3--3--3--3--3--|--3--3--3--3--3--3--3--3--|----------------------------------|
--5--5--5--5--5--5--5--5--|--5--5--5--5--5--5--5--5--|--10--10--10--10--10--10--10--10--|
--3--3--3--3--3--3--3--3--|--3--3--3--3--3--3--3--3--|--10--10--10--10--10--10--10--10--|
--3--3--3--3--3--3--3--3--|--3--3--3--3--3--3--3--3--|--10--10--10--10--10--10--10--10--|


                                                                                         
----------------------------------|--------------------------|--------------------------|
----------------------------------|--------------------------|--------------------------|
----------------------------------|--3--3--3--3--3--3--3--3--|--3--3--3--3--3--3--3--3--|
--10--10--10--10--10--10--10--10--|--5--5--5--5--5--5--5--5--|--5--5--5--5--5--5--5--5--|
--10--10--10--10--10--10--10--10--|--3--3--3--3--3--3--3--3--|--3--3--3--3--3--3--3--3--|
--9---9---9---9---9---9---9---9---|--3--3--3--3--3--3--3--3--|--3--3--3--3--3--3--3--3--|


                                                                      
----------------------------------|----------------------------------|
----------------------------------|----------------------------------|
----------------------------------|----------------------------------|
--10--10--10--10--10--10--10--10--|--10--10--10--10--10--10--10--10--|
--10--10--10--10--10--10--10--10--|--10--10--10--10--10--10--10--10--|
--10--10--10--10--10--10--10--10--|--9---9---9---9---9---9---9---9---|


                                                                                         
--------------------------|--------------------------|----------------------------------|
--------------------------|--------------------------|----------------------------------|
--3--3--3--3--3--3--3--3--|--3--3--3--3--3--3--3--3--|----------------------------------|
--5--5--5--5--5--5--5--5--|--5--5--5--5--5--5--5--5--|--10--10--10--10--10--10--10--10--|
--3--3--3--3--3--3--3--3--|--3--3--3--3--3--3--3--3--|--10--10--10--10--10--10--10--10--|
--3--3--3--3--3--3--3--3--|--3--3--3--3--3--3--3--3--|--10--10--10--10--10--10--10--10--|


                                                                                            
----------------------------------|-----7--7--7--7--7--7--7--|--7--7--7--7--7--9---9---9---|
----------------------------------|-----8--8--8--8--8--8--8--|--8--8--8--8--8--10--10--10--|
----------------------------------|--3--6--6--6--6--6--6--6--|--6--6--6--6--6--8---8---8---|
--10--10--10--10--10--10--10--10--|--5-----------------------|-----------------------------|
--10--10--10--10--10--10--10--10--|--3-----------------------|-----------------------------|
--9---9---9---9---9---9---9---9---|--3-----------------------|-----------------------------|


                                                                      
------10--10--10--10--10--10--10--|--10--9---9---9---9---9---9---9---|
------10--10--10--10--10--10--10--|--10--10--10--10--10--10--10--10--|
--10--10--10--10--10--10--10--10--|--10--10--10--10--10--10--10--10--|
--10------------------------------|----------------------------------|
----------------------------------|----------------------------------|
----------------------------------|----------------------------------|


                                                                                   
--7--7--7--7--7--7--7--7--|--7--7--7--7--7--7--9---9---|--7--7--7--7--7--7--7--7--|
--8--8--8--8--8--8--8--8--|--8--8--8--8--8--8--10--10--|--8--8--8--8--8--8--8--8--|
--6--6--6--6--6--6--6--6--|--6--6--6--6--6--6--8---8---|--6--6--6--6--6--6--6--6--|
--------------------------|----------------------------|--------------------------|
--------------------------|----------------------------|--------------------------|
--------------------------|----------------------------|--------------------------|


                                                                   
--7--7--7--7--7--7--7--7--|--7----------------|------------------||
--8--8--8--8--8--8--8--8--|--8----------------|------------------||
--6--6--6--6--6--6--6--6--|--6----------------|------------------||
--------------------------|--7----------------|------------------||
--------------------------|--0----------------|------------------||
--------------------------|-------------------|------------------||


Guitar 2
Standard Tuning


E||------------------|------------------|------------------|------------------|
B||------------------|------------------|------------------|------------------|
G||------------------|------------------|------------------|------------------|
D||------------------|------------------|------------------|------------------|
A||------------------|------------------|------------------|------------------|
E||------------------|------------------|------------------|------------------|


                                                                            
------------------|------------------|------------------|------------------|
------------------|------------------|------------------|------------------|
------------------|------------------|------------------|------------------|
------------------|------------------|------------------|------------------|
------------------|------------------|------------------|------------------|
------------------|------------------|------------------|------------------|


                                                                            
------------------|------------------|------------------|------------------|
------------------|------------------|------------------|------------------|
------------------|------------------|------------------|------------------|
------------------|------------------|------------------|------------------|
------------------|------------------|------------------|------------------|
------------------|------------------|------------------|------------------|


                                                                            
------------------|------------------|------------------|------------------|
------------------|------------------|------------------|------------------|
------------------|------------------|------------------|------------------|
------------------|------------------|------------------|------------------|
------------------|------------------|------------------|------------------|
------------------|------------------|------------------|------------------|


                                                                            
------------------|------------------|------------------|------------------|
------------------|------------------|------------------|------------------|
------------------|------------------|------------------|------------------|
------------------|------------------|------------------|------------------|
------------------|------------------|------------------|------------------|
------------------|------------------|------------------|------------------|


                                                                            
------------------|------------------|------------------|------------------|
------------------|------------------|------------------|------------------|
------------------|------------------|------------------|------------------|
------------------|------------------|------------------|------------------|
------------------|------------------|------------------|------------------|
------------------|------------------|------------------|------------------|


                                                                            
------------------|------------------|------------------|------------------|
------------------|------------------|------------------|------------------|
------------------|------------------|------------------|------------------|
------------------|------------------|------------------|------------------|
------------------|------------------|------------------|------------------|
------------------|------------------|------------------|------------------|


                                                                            
------------------|------------------|------------------|------------------|
------------------|------------------|------------------|------------------|
------------------|------------------|------------------|------------------|
------------------|------------------|------------------|------------------|
------------------|------------------|------------------|------------------|
------------------|------------------|------------------|------------------|


                                                                            
------------------|------------------|------------------|------------------|
------------------|------------------|------------------|------------------|
------------------|------------------|------------------|------------------|
------------------|------------------|------------------|------------------|
------------------|------------------|------------------|------------------|
------------------|------------------|------------------|------------------|


                                                                            
------------------|------------------|------------------|------------------|
------------------|------------------|------------------|------------------|
------------------|------------------|------------------|------------------|
------------------|------------------|------------------|------------------|
------------------|------------------|------------------|------------------|
------------------|------------------|------------------|------------------|


                                                                            
------------------|------------------|------------------|------------------|
------------------|------------------|------------------|------------------|
------------------|------------------|------------------|------------------|
------------------|------------------|------------------|------------------|
------------------|------------------|------------------|------------------|
------------------|------------------|------------------|------------------|


                                                                            
------------------|------------------|------------------|------------------|
------------------|------------------|------------------|------------------|
------------------|------------------|------------------|------------------|
------------------|------------------|------------------|------------------|
------------------|------------------|------------------|------------------|
------------------|------------------|------------------|------------------|


                                                                            
------------------|------------------|------------------|------------------|
------------------|------------------|------------------|------------------|
------------------|------------------|------------------|------------------|
------------------|------------------|------------------|------------------|
------------------|------------------|------------------|------------------|
------------------|------------------|------------------|------------------|


                                                                            
------------------|------------------|------------------|------------------|
------------------|------------------|------------------|------------------|
------------------|------------------|------------------|------------------|
------------------|------------------|------------------|------------------|
------------------|------------------|------------------|------------------|
------------------|------------------|------------------|------------------|


                                                                            
------------------|------------------|------------------|------------------|
------------------|------------------|------------------|------------------|
------------------|------------------|------------------|------------------|
------------------|------------------|------------------|------------------|
------------------|------------------|------------------|------------------|
------------------|------------------|------------------|------------------|


                                                                            
------------------|------------------|------------------|------------------|
------------------|------------------|------------------|------------------|
------------------|------------------|------------------|------------------|
------------------|------------------|------------------|------------------|
------------------|------------------|------------------|------------------|
------------------|------------------|------------------|------------------|


                                                                                   
--------------------|---------------------|--------------------|------------------|
--------------------|---------------------|--------------------|------------------|
--------------------|---------------------|--------------------|------------------|
--------------------|---------------------|--------------------|------------------|
------------6---7---|--9----------7----6--|--6h-7--------------|------------------|
--------------------|---------------------|--------------------|------------------|


                                                                    
--------------------|---------------------|------------------------|
--------------------|---------------------|------------------------|
--------------------|---------------------|------------------------|
--------------------|-------------6-------|------------------------|
------------6---7---|--9---------------6--|--6h-7----7--7h-9----9--|
--------------------|---------------------|------------------------|


                                                                              
--------------------------------|----------------------|---------------------|
--------------------------------|----------------------|---------------------|
--------------------------------|----------------------|---------------------|
--------------------------------|----------------------|---------------------|
--9h-11----11--12----11----9----|--11----------6---7---|--9----------7----6--|
--------------------------------|----------------------|---------------------|


                                                                            
------------------------|----------------------------|---------------------|
------------------------|----------------------------|---------------------|
------------------------|----------------------------|---------------------|
------------------------|----------------------------|---------------------|
--6--4----4--4--2----2--|--2--0----0--0----2----6----|--7----------6---7---|
------------------------|----------------------------|---------------------|


                                                                            
---------------------|--------------------------|--------------------------|
---------------------|-----------0-----0-----0--|-----0-----0-----0-----0--|
---------------------|--------------------------|--------------------------|
---------------------|-----4--------------------|--------------------------|
--9----------7----6--|--6-----6-----6-----6-----|--7-----7-----7-----7-----|
---------------------|--------------------------|--------------------------|

http://www.stopforthatdog.com
http://thatdog.net
http://www.annawaronker.com
Comments