That Dog - He Rocks Chords & Tabs

 

He Rocks Chords & Tabs

That Dog Chords & Tabs

Version: 1 Type: Bass Tab 0 ratings
1 star 2 stars 3 stars 4 stars 5 stars
comments

He Rocks Bass Tab

that dog - he rocks

Submitted by: Alex Getts. None of this is my own work, Kudos to those that transcribed this.
I am only responsible for submitting this.

transcribed by: aaron wilson (amiloudenough@hotmail.com)

Bass
Standard Tuning


G||------------------|------------------|------------------|--------------------------|
D||------------------|------------------|------------------|--------------------------|
A||------------------|------------------|------------------|--------------------------|
E||------------------|------------------|------------------|--3--3--3--3--3--3--3--3--|


                                                                                 
--------------------------|--------------------------|--------------------------|
--------------------------|--------------------------|--------------------------|
--------------------------|--------------------------|--------------------------|
--5--5--5--5--5--5--5--5--|--9--9--9--9--9--9--9--9--|--2--2--2--2--2--2--2--2--|


                                                                                 
--------------------------|--------------------------|--------------------------|
--------------------------|--------------------------|--------------------------|
--------------------------|--------------------------|--------------------------|
--3--3--3--3--3--3--3--3--|--5--5--5--5--5--5--5--5--|--9--9--9--9--9--9--9--9--|


                                                                                 
--------------------------|--------------------------|--------------------------|
--------------------------|--------------------------|--------------------------|
--------------------------|--------------------------|--------------------------|
--2--2--2--2--2--2--2--2--|--3--3--3--3--3--3--3--3--|--5--5--5--5--5--5--5--5--|


                                                                                 
--------------------------|--------------------------|--------------------------|
--------------------------|--------------------------|--------------------------|
--------------------------|--------------------------|--------------------------|
--9--9--9--9--9--9--9--9--|--2--2--2--2--2--2--2--2--|--3--3--3--3--3--3--3--3--|


                                                                                 
--------------------------|--------------------------|--------------------------|
--------------------------|--------------------------|--------------------------|
--------------------------|--------------------------|--------------------------|
--5--5--5--5--5--5--5--5--|--9--9--9--9--9--9--9--9--|--2--2--2--2--2--2--2--2--|


                                                                                 
--------------------------|--------------------------|--------------------------|
--------------------------|--------------------------|--------------------------|
--------------------------|--------------------------|--------------------------|
--3--3--3--3--3--3--3--3--|--5--5--5--5--5--5--5--5--|--9--9--9--9--9--9--9--9--|


                                                                                 
--------------------------|--------------------------|--------------------------|
--------------------------|--------------------------|--------------------------|
--------------------------|--------------------------|--------------------------|
--2--2--2--2--2--2--2--2--|--3--3--3--3--3--3--3--3--|--5--5--5--5--5--5--5--5--|


                                                                                 
--------------------------|--------------------------|--------------------------|
--------------------------|--------------------------|--------------------------|
--------------------------|--------------------------|--------------------------|
--9--9--9--9--9--9--9--9--|--2--2--2--2--2--2--2--2--|--2--2--2--2--2--2--2--2--|


                                                                                 
--------------------------|--------------------------|--------------------------|
--------------------------|--------------------------|--7--7--7--7--7--7--7--7--|
--7--7--7--7--7--7--7--7--|--6--6--6--6--6--6--6--6--|--------------------------|
--------------------------|--------------------------|--------------------------|


                                                                                 
--------------------------|--------------------------|--------------------------|
--7--7--7-----------------|--------------------------|--------------------------|
-----------9--9--6--6--6--|--7--7--7--7--7--7--7--7--|--6--6--6--6--6--6--6--6--|
--------------------------|--------------------------|--------------------------|


                                                                                 
--------------------------|--------------------------|--------------------------|
--7--7--7--7--7--7--7--7--|--7--7--7-----------------|--------------------------|
--------------------------|-----------9--9--6--6--6--|--7--7--7--7--7--7--7--7--|
--------------------------|--------------------------|--------------------------|


                                                                                 
--------------------------|--------------------------|--------------------------|
--------------------------|--7--7--7--7--7--7--7--7--|--7--7--7-----------------|
--6--6--6--6--6--6--6--6--|--------------------------|-----------9--9--6--6--6--|
--------------------------|--------------------------|--------------------------|


                                                                                 
--------------------------|--------------------------|--------------------------|
--------------------------|--------------------------|--7--7--7--7--7--7--7--7--|
--7--7--7--7--7--7--7--7--|--6--6--6--6--6--6--6--6--|--------------------------|
--------------------------|--------------------------|--------------------------|


                                                                                
-------------------------|--------------------------|--------------------------|
--7--7--7--7--7--7--7----|--------------------------|--------------------------|
-------------------------|--------------------------|--------------------------|
-------------------------|--5--5--5--5--5--5--5--5--|--9--9--9--9--9--9--9--9--|


                                                                                 
--------------------------|--------------------------|--------------------------|
--------------------------|--------------------------|--------------------------|
--------------------------|--------------------------|--------------------------|
--2--2--2--2--2--2--2--2--|--3--3--3--3--3--3--3--3--|--5--5--5--5--5--5--5--5--|

[ Tab from: http://www.guitartabs.cc/tabs/t/that_dog/he_rocks_btab.html ]
                                                                                 
--------------------------|--------------------------|--------------------------|
--------------------------|--------------------------|--------------------------|
--------------------------|--------------------------|--------------------------|
--9--9--9--9--9--9--9--9--|--2--2--2--2--2--2--2--2--|--3--3--3--3--3--3--3--3--|


                                                                                 
--------------------------|--------------------------|--------------------------|
--------------------------|--------------------------|--------------------------|
--------------------------|--------------------------|--------------------------|
--5--5--5--5--5--5--5--5--|--9--9--9--9--9--9--9--9--|--2--2--2--2--2--2--2--2--|


                                                                                 
--------------------------|--------------------------|--------------------------|
--------------------------|--------------------------|--------------------------|
--------------------------|--------------------------|--------------------------|
--3--3--3--3--3--3--3--3--|--5--5--5--5--5--5--5--5--|--9--9--9--9--9--9--9--9--|


                                                                                 
--------------------------|--------------------------|--------------------------|
--------------------------|--------------------------|--------------------------|
--------------------------|--------------------------|--------------------------|
--2--2--2--2--2--2--2--2--|--3--3--3--3--3--3--3--3--|--5--5--5--5--5--5--5--5--|


                                                                                 
--------------------------|--------------------------|--------------------------|
--------------------------|--------------------------|--------------------------|
--------------------------|--------------------------|--------------------------|
--9--9--9--9--9--9--9--9--|--2--2--2--2--2--2--2--2--|--2--2--2--2--2--2--2--2--|


                                                                            
------------------|------------------|------------------|------------------|
------------------|------------------|------------------|------------------|
------------------|------------------|------------------|------------------|
------------------|------------------|------------------|------------------|


                                                                            
------------------|------------------|------------------|------------------|
------------------|------------------|------------------|------------------|
------------------|------------------|------------------|------------------|
------------------|------------------|------------------|------------------|


                                                                            
------------------|------------------|------------------|------------------|
------------------|------------------|------------------|------------------|
------------------|------------------|------------------|------------------|
------------------|------------------|------------------|------------------|


                                                                                            
------------------|------------------|--------------------------|--------------------------|
------------------|------------------|--------------------------|--------------------------|
------------------|------------------|--6--6--6--6--6--6--6--6--|--7--7--7--7--7--7--7--7--|
------------------|------------------|--------------------------|--------------------------|


                                                                                 
--------------------------|--------------------------|--------------------------|
--------------------------|--------------------------|--7--7--7--7--7--7--7--7--|
--7--7--7--7--7--7--7--7--|--6--6--6--6--6--6--6--6--|--------------------------|
--------------------------|--------------------------|--------------------------|


                                                                                 
--------------------------|--------------------------|--------------------------|
--7--7--7-----------------|--------------------------|--------------------------|
-----------9--9--6--6--6--|--7--7--7--7--7--7--7--7--|--6--6--6--6--6--6--6--6--|
--------------------------|--------------------------|--------------------------|


                                                                                 
--------------------------|--------------------------|--------------------------|
--7--7--7--7--7--7--7--7--|--7--7--7-----------------|--------------------------|
--------------------------|-----------9--9--6--6--6--|--7--7--7--7--7--7--7--7--|
--------------------------|--------------------------|--------------------------|


                                                                                 
--------------------------|--------------------------|--------------------------|
--------------------------|--7--7--7--7--7--7--7--7--|--7--7--7-----------------|
--6--6--6--6--6--6--6--6--|--------------------------|-----------9--9--6--6--6--|
--------------------------|--------------------------|--------------------------|


                                                                                 
--------------------------|--------------------------|--------------------------|
--------------------------|--------------------------|--7--7--7--7--9--9--9--9--|
--7--7--7--7--7--7--7--7--|--6--6--6--6--6--6--6--6--|--------------------------|
--------------------------|--------------------------|--------------------------|


                                                                                         
----------------------------------|--------------------------|--------------------------|
--11--11--11--11--13--13--14--14--|--------------------------|--------------------------|
----------------------------------|--7--7--7--7--7--7--7--7--|--6--6--6--6--6--6--6--6--|
----------------------------------|--------------------------|--------------------------|


                                                                                 
--------------------------|--------------------------|--------------------------|
--7--7--7--7--7--7--7--7--|--7--7--7-----------------|-----------9--9-----9-----|
--------------------------|-----------9--9--6--6--6--|--7--7--7--------7-----7--|
--------------------------|--------------------------|--------------------------|


                                                                                 
--------------------------|--------------------------|--------------------------|
-----------9--9-----------|--7--7--7--7--7--7--7--7--|--7--7--7--9--9--7--6-----|
--6--6--6--------6--6--6--|--------------------------|-----------------------9--|
--------------------------|--------------------------|--------------------------|


                                                                          
--------------------------|--------------------------|-------------------|
-----------9--9-----9-----|-----------9--9-----------|-------------------|
--7--7--7--------7-----7--|--6--6--6--------6--6--6--|-------------------|
--------------------------|--------------------------|--5----------------|

http://www.stopforthatdog.com
http://thatdog.net
http://www.annawaronker.com


Comments