That Dog - Hawthorne Chords & Tabs

 

Hawthorne Chords & Tabs

That Dog Chords & Tabs

Version: 1 Type: Bass Tab 0 ratings
1 star 2 stars 3 stars 4 stars 5 stars
comments

Hawthorne Bass Tab

that dog - hawthorne

Submitted by: Alex Getts. None of this is my own work, Kudos to those that transcribed this.
I am only responsible for submitting this.

transcribed by: aaron wilson (amiloudenough@hotmail.com)

Bass
Standard Tuning


G||------------------|------------------|------------------|----------------------|
D||------------------|------------------|------------------|----------------------|
A||------------------|------------------|------------------|----------------------|
E||------------------|------------------|------------------|----------------------|


                                                                            
------------------|------------------|------------------|------------------|
------------------|------------------|------------------|------------------|
------------------|------------------|------------------|------------------|
------------------|------------------|------------------|------------------|


                                                                            
------------------|------------------|------------------|------------------|
------------------|------------------|------------------|------------------|
------------------|------------------|------------------|------------------|
------------------|------------------|------------------|------------------|


                                                                                    
------------------|------------------|----------------------|----------------------|
------------------|------------------|----------------------|----------------------|
------------------|------------------|----------------------|----------------------|
------------------|------------------|--3------3--0------0--|--3------3--0------0--|


                                                                                            
----------------------|----------------------|----------------------|----------------------|
----------------------|----------------------|----------------------|----------------------|
----------------------|----------------------|----------------------|----------------------|
--3------3--0------0--|--3------3--0------0--|--3------3--0------0--|--3------3--0------0--|


                                                                         
----------------------|--------------------------|----------------------|
----------------------|--------------------------|----------------------|
----------------------|--------------------------|----------------------|
--3------3--0------0--|--5--5--5--5--5--5--5--5--|--3------3--0------0--|


                                                                     
----------------------|----------------------|----------------------|
----------------------|----------------------|----------------------|
----------------------|----------------------|----------------------|
--3------3--0------0--|--5------5--0------0--|--5------5--0------0--|


                                                                                
--------------------------|-------------------------|--------------------------|
--------------------------|-------------------------|--------------------------|
--------------------------|-------------------------|--------------------------|
--8--8--8--8--8--8--8--5--|----5--5--5--5--5--5--5--|--3--3--3--3--5--5--5--5--|


                                                                                   
--------------------------|-----------------------------|-------------------------|
--------------------------|-----------------------------|-------------------------|
--------------------------|--------------10--10--10-----|-------------------------|
--7--7--7--7--7--7--7--7--|--8--8--8--8--------------9--|----9--9--9--9--9--9--9--|


                                                                                  
--------------------------|--------------------------|---------------------------|
--------------------------|--------------------------|---------------------------|
--------------------------|--------------------------|--------------10--9--7-----|
--3--3--3--3--5--5--5--5--|--7--7--7--7--7--7--7--7--|--8--8--8--8------------9--|


                                                                                             
-----------------------|----------------------|----------------------|----------------------|
-----------------------|----------------------|----------------------|----------------------|
----------7-------7----|----------------------|----------------------|----------------------|
----9--9-------9-------|--3------3--0------0--|--3------3--0------0--|--3------3--0------0--|


                                                                        
------------------------|----------------------|-----------------------|
------------------------|----------------------|-----------------------|
------------------------|----------------------|-----------------------|
--3------3--0--0--3--0--|--5------5--0------0--|--5------5--0--0--5----|

[ Tab from: http://www.guitartabs.cc/tabs/t/that_dog/hawthorne_btab.html ]
                                                                                
--------------------------|-------------------------|--------------------------|
--------------------------|-------------------------|--------------------------|
--------------------------|-------------------------|--------------------------|
--8--8--8--8--8--8--8--5--|----5--5--5--5--5--5--5--|--3--3--3--3--5--5--5--5--|


                                                                                
--------------------------|--------------------------|-------------------------|
--------------------------|--------------------------|-------------------------|
--------------------------|--------------------------|-------------------------|
--7--7--7--7--7--7--7--7--|--8--8--8--8--8--7--6--5--|----5--5--5--5--5--5--5--|


                                                                                           
----------------------|---------------------|----------------------|----------------------|
----------------------|---------------------|----------------------|----------------------|
----------------------|---------------------|----------------------|----------------------|
--3------3--0------0--|--3------3--0--------|--3------3--0------0--|--3--3----3--0--------|


                                                                           
----------------------|--------------------------|------------------------|
----------------------|--------------------------|------------------------|
----------------------|--------------------------|-----2-----2------------|
--3------3--0----0----|--5--5--5--5--5--5--5--5--|--3-----3-----0------0--|


                                                                             
-----------------------|-------------------------|--------------------------|
-----------------------|-------------------------|--------------------------|
-----2-----2-----------|-----4-----4-------------|--------------------------|
--3-----3-----0--------|--5-----5-----0----0--0--|--5--5--5--5--5--5--5--5--|


                                                                                
--------------------------|-------------------------|--------------------------|
--------------------------|-------------------------|--------------------------|
--------------------------|-------------------------|--------------------------|
--8--8--8--8--8--8--8--5--|----5--5--5--5--5--5--5--|--3--3--3--3--5--5--5--5--|


                                                                                
--------------------------|---------------------------|------------------------|
--------------------------|---------------------------|------------------------|
--------------------------|--------------10--9--7-----|----------7-------7-----|
--7--7--7--7--7--7--7--7--|--8--8--8--8------------9--|----9--9-------9-----9--|


                                                                                 
--------------------------|--------------------------|--------------------------|
--------------------------|--------------------------|--------------------------|
--------------------------|--------------------------|--------------------------|
--3--3--3--3--5--5--5--5--|--7--7--7--7--7--7--7--7--|--8--8--8--8--8--8--8--5--|


                                                                                
-------------------------|--------------------------|--------------------------|
-------------------------|--------------------------|--------------------------|
-------------------------|--------------------------|--------------------------|
----5--5--5--5--5--5--5--|--3--3--3--3--5--5--5--5--|--7--7--7--7--7--7--7--0--|


                                                                            
--------------------------|-------------------------|----------------------|
--------------------------|-------------------------|----------------------|
--------------------------|-------------------------|----------------------|
--8--8--8--8--8--7--6--5--|----5--5--5--5--5--5--5--|--3------3--0------0--|


                                                                     
----------------------|----------------------|----------------------|
----------------------|----------------------|----------------------|
----------------------|----------------------|----------------------|
--3------3--0------0--|--3------3--0------0--|--3------3--0------0--|


                                                                         
------------------------|----------------------|------------------------|
------------------------|----------------------|------------------------|
-----2-----2------------|----------------------|-----2-----2------------|
--3-----3-----0------0--|--3------3--0------0--|--3-----3-----0------0--|


                                                                       
----------------------|--------------------------|-------------------||
----------------------|--------------------------|-------------------||
----------------------|-----2-----2--------2--0--|-------------------||
--3------3--0------0--|--3-----3-----0--0--------|--3----------------||


http://www.stopforthatdog.com
http://thatdog.net
http://www.annawaronker.com
Comments