That Dog - Gagged And Tied Chords & Tabs

 

Gagged And Tied Chords & Tabs

That Dog Chords & Tabs

Version: 2 Type: Tab 0 ratings
1 star 2 stars 3 stars 4 stars 5 stars
comments

Gagged And Tied Tab

   
Artist: That Dog
Song: Gagged and Tied
Album: Retreat from the Sun

Intro:
E--10-10-10-10-10-10-15-|
B--15-15-15-15-15-15-15-|
G-----------------------|
D-----------------------|
A-----------------------|
E-----------------------|

Verse:
E---0---0---0---0---0---0--|
B---0---0---0---0---0---0--|
G---6---7---6---7---8---9--|
D---7---7---7---7---9---9--|
A---7---7---7---7---9---9--|
E--------------------------|

Pre Chorus:
E----------------------------------------|
B----------------------------------------|
G-------5555------5555------5555---------|
D--5555-5555-5555-5555-5555-5555-55555555|
A--5555-3333-5555-3333-5555-3333-55555555|
E--3333------3333------3333------33333333|
[ Tab from: http://www.guitartabs.cc/tabs/t/that_dog/gagged_and_tied_tab_ver_2.html ]
Chorus:
E----------------------------------------------|-----------|
B----------------------------------------------|-----------|
G--5555--7777------------5555--7777------------|--5--7-----|
D--5555--7777--55555555--5555--7777--555555555-|--5--7---5-|
A--3333--5555--55555555--3333--5555--555555555-|--3--5---5-|
E--------------33333333--------------333333333-|---------3-|

Bridge 1:
E---------------|
B---------------|
G--4-444-5-5555-|            
D--4-444-5-5555-|    (Some weird feedback)        
A--2-222-3-3333-|     
E---------------| 

Solo:
E-14-14-14-14-13-13-13-13-12-12-12-12-12-12-12-12-|
B-14-14-14-14-13-13-13-13-12-12-12-12-12-12-12-12-|
G-------------------------------------------------|
D-------------------------------------------------|
A-------------------------------------------------|   8x
E-------------------------------------------------|
Comments