That Dog - Gagged And Tied Chords & Tabs

 

Gagged And Tied Chords & Tabs

That Dog Chords & Tabs

Version: 1 Type: Tab 0 ratings
1 star 2 stars 3 stars 4 stars 5 stars
comments

Gagged And Tied Tab

that dog - gagged and tied

Submitted by: Alex Getts. None of this is my own work, Kudos to those that transcribed this.
I am only responsible for submitting this.

transcribed by: aaron wilson (amiloudenough@hotmail.com)

Guitar 1
Standard Tuning


E||--12--12--12--12--12--12--12--12--|--12--12--12--12--12--12--12--12--|
B||--15--15--15--15--15--15--15--15--|--15--15--15--15--15--15--15--15--|
G||----------------------------------|----------------------------------|
D||----------------------------------|----------------------------------|
A||----------------------------------|----------------------------------|
E||----------------------------------|----------------------------------|


                                                                    
--12--12--12--12--12--12--12--12--|--12--12--12--12--12--12--12----|
--15--15--15--15--15--15--15--15--|--15--15--15--15--15--15--15----|
----------------------------------|--------------------------------|
----------------------------------|--------------------------------|
----------------------------------|--------------------------------|
----------------------------------|--------------------------------|


                                                                                 
--0--0--0--0--0--0--0--0--|--0--0--0--0--0--0--0--0--|--0--0--0--0--0--0--0--0--|
--0--0--0--0--0--0--0--0--|--0--0--0--0--0--0--0--0--|--0--0--0--0--0--0--0--0--|
--6--6--6--6--6--6--6--6--|--7--7--7--7--7--7--7--7--|--6--6--6--6--6--6--6--6--|
--7--7--7--7--7--7--7--7--|--7--7--7--7--7--7--7--7--|--7--7--7--7--7--7--7--7--|
--7--7--7--7--7--7--7--7--|--7--7--7--7--7--7--7--7--|--7--7--7--7--7--7--7--7--|
--------------------------|--------------------------|--------------------------|


                                                                                 
--0--0--0--0--0--0--0--0--|--0--0--0--0--0--0--0--0--|--0--0--0--0--0--0--0--0--|
--0--0--0--0--0--0--0--0--|--0--0--0--0--0--0--0--0--|--0--0--0--0--0--0--0--0--|
--7--7--7--7--7--7--7--7--|--6--6--6--6--6--6--6--6--|--7--7--7--7--7--7--7--7--|
--7--7--7--7--7--7--7--7--|--7--7--7--7--7--7--7--7--|--7--7--7--7--7--7--7--7--|
--7--7--7--7--7--7--7--7--|--7--7--7--7--7--7--7--7--|--7--7--7--7--7--7--7--7--|
--------------------------|--------------------------|--------------------------|


                                                                                 
--0--0--0--0--0--0--0--0--|--0--0--0--0--0--0--0--0--|--0--0--0--0--0--0--0--0--|
--0--0--0--0--0--0--0--0--|--0--0--0--0--0--0--0--0--|--0--0--0--0--0--0--0--0--|
--6--6--6--6--6--6--6--6--|--7--7--7--7--7--7--7--7--|--8--8--8--8--8--8--8--8--|
--7--7--7--7--7--7--7--7--|--7--7--7--7--7--7--7--7--|--9--9--9--9--9--9--9--9--|
--7--7--7--7--7--7--7--7--|--7--7--7--7--7--7--7--7--|--9--9--9--9--9--9--9--9--|
--------------------------|--------------------------|--------------------------|


                                                                                     
--0--0--0--0--0--0--0--0--||---0--0--0--0--0--0--0--0--|--0--0--0--0--0--0--0--0---||
--0--0--0--0--0--0--0--0--||---0--0--0--0--0--0--0--0--|--0--0--0--0--0--0--0--0---||
--9--9--9--9--9--9--9--9--||*--6--6--6--6--6--6--6--6--|--7--7--7--7--7--7--7--7--*||
--9--9--9--9--9--9--9--9--||*--7--7--7--7--7--7--7--7--|--7--7--7--7--7--7--7--7--*||
--9--9--9--9--9--9--9--9--||---7--7--7--7--7--7--7--7--|--7--7--7--7--7--7--7--7---||
--------------------------||---------------------------|---------------------------||


                                                                                 
--0--0--0--0--0--0--0--0--|--0--0--0--0--0--0--0--0--|--0--0--0--0--0--0--0--0--|
--0--0--0--0--0--0--0--0--|--0--0--0--0--0--0--0--0--|--0--0--0--0--0--0--0--0--|
--8--8--8--8--8--8--8--8--|--9--9--9--9--9--9--9--9--|--8--8--8--8--8--8--8--8--|
--9--9--9--9--9--9--9--9--|--9--9--9--9--9--9--9--9--|--9--9--9--9--9--9--9--9--|
--9--9--9--9--9--9--9--9--|--9--9--9--9--9--9--9--9--|--9--9--9--9--9--9--9--9--|
--------------------------|--------------------------|--------------------------|


                                                                                          
--0--0--0--0--0--0--0--0--||----------------------------------|--------------------------|
--0--0--0--0--0--0--0--0--||----------------------------------|--------------------------|
--8--8--8--8--8--8--8--8--||*---------------------------------|-----------------------5--|
--9--9--9--9--9--9--9--9--||*--5--5--5/-10-10-10--10--10\-5-5-|--5--5--5--2--2--2--2--5--|
--9--9--9--9--9--9--9--9--||---5--5--5/-10-10-10--10--10\-5-5-|--5--5--5--2--2--2--2--3--|
--------------------------||---3--3--3/-8--8--8---8---8-\-3-3-|--3--3--3--0--0--0--0-----|


                                                                                    
---------------------------|---------------------------||--------------------------|
---------------------------|---------------------------||--------------------------|
--5--5--5------------------|--------------------------*||--------------------------|
--5--5--5--4-4-4--4--4--5--|--5--5--5--5--5--5--5--5--*||--7--7--7--7--6--6--6--6--|
--3--3--3--4-4-4--4--4--5--|--5--5--5--5--5--5--5--5---||--7--7--7--7--6--6--6--6--|
-----------2-2-2--2--2--3--|--3--3--3--3--3--3--3--3---||--5--5--5--5--4--4--4--4--|


                                                                                 
--------------------------|--------------------------|--------------------------|
--------------------------|--------------------------|--------------------------|
--------------------------|--------------5--5--5--5--|--------------------------|
--5--5--5--5--5--5--5--5--|--7--7--7--7--5--5--5--5--|--5--5--5--5--5--5--5--5--|
--5--5--5--5--5--5--5--5--|--7--7--7--7--3--3--3--3--|--5--5--5--5--5--5--5--5--|
--3--3--3--3--3--3--3--3--|--5--5--5--5--------------|--3--3--3--3--3--3--3--3--|


                                                                                
-------------------|-------------------|-------------------|--3----------------|
--5----------------|--4----------------|--3----------------|--3----------------|
--6----------------|--5----------------|--4----------------|--4----------------|
--7----------------|--6----------------|--5----------------|--5----------------|
--7----------------|--6----------------|--5----------------|--5----------------|
--5----------------|--4----------------|--3----------------|--3----------------|


                                                                                 
--0--0--0--0--0--0--0--0--|--0--0--0--0--0--0--0--0--|--0--0--0--0--0--0--0--0--|
--0--0--0--0--0--0--0--0--|--0--0--0--0--0--0--0--0--|--0--0--0--0--0--0--0--0--|
--6--6--6--6--6--6--6--6--|--7--7--7--7--7--7--7--7--|--6--6--6--6--6--6--6--6--|
--7--7--7--7--7--7--7--7--|--7--7--7--7--7--7--7--7--|--7--7--7--7--7--7--7--7--|
--7--7--7--7--7--7--7--7--|--7--7--7--7--7--7--7--7--|--7--7--7--7--7--7--7--7--|
--------------------------|--------------------------|--------------------------|


                                                                                 
--0--0--0--0--0--0--0--0--|--0--0--0--0--0--0--0--0--|--0--0--0--0--0--0--0--0--|
--0--0--0--0--0--0--0--0--|--0--0--0--0--0--0--0--0--|--0--0--0--0--0--0--0--0--|
--7--7--7--7--7--7--7--7--|--6--6--6--6--6--6--6--6--|--7--7--7--7--7--7--7--7--|
--7--7--7--7--7--7--7--7--|--7--7--7--7--7--7--7--7--|--7--7--7--7--7--7--7--7--|
--7--7--7--7--7--7--7--7--|--7--7--7--7--7--7--7--7--|--7--7--7--7--7--7--7--7--|
--------------------------|--------------------------|--------------------------|


                                                                                 
--0--0--0--0--0--0--0--0--|--0--0--0--0--0--0--0--0--|--0--0--0--0--0--0--0--0--|
--0--0--0--0--0--0--0--0--|--0--0--0--0--0--0--0--0--|--0--0--0--0--0--0--0--0--|
--6--6--6--6--6--6--6--6--|--7--7--7--7--7--7--7--7--|--8--8--8--8--8--8--8--8--|
--7--7--7--7--7--7--7--7--|--7--7--7--7--7--7--7--7--|--9--9--9--9--9--9--9--9--|
--7--7--7--7--7--7--7--7--|--7--7--7--7--7--7--7--7--|--9--9--9--9--9--9--9--9--|
--------------------------|--------------------------|--------------------------|


                                                                                 
--0--0--0--0--0--0--0--0--|--0--0--0--0--0--0--0--0--|--0--0--0--0--0--0--0--0--|
--0--0--0--0--0--0--0--0--|--0--0--0--0--0--0--0--0--|--0--0--0--0--0--0--0--0--|
--9--9--9--9--9--9--9--9--|--6--6--6--6--6--6--6--6--|--7--7--7--7--7--7--7--7--|
--9--9--9--9--9--9--9--9--|--7--7--7--7--7--7--7--7--|--7--7--7--7--7--7--7--7--|
--9--9--9--9--9--9--9--9--|--7--7--7--7--7--7--7--7--|--7--7--7--7--7--7--7--7--|
--------------------------|--------------------------|--------------------------|


                                                                                 
--0--0--0--0--0--0--0--0--|--0--0--0--0--0--0--0--0--|--0--0--0--0--0--0--0--0--|
--0--0--0--0--0--0--0--0--|--0--0--0--0--0--0--0--0--|--0--0--0--0--0--0--0--0--|
--6--6--6--6--6--6--6--6--|--7--7--7--7--7--7--7--7--|--8--8--8--8--8--8--8--8--|
--7--7--7--7--7--7--7--7--|--7--7--7--7--7--7--7--7--|--9--9--9--9--9--9--9--9--|
--7--7--7--7--7--7--7--7--|--7--7--7--7--7--7--7--7--|--9--9--9--9--9--9--9--9--|
--------------------------|--------------------------|--------------------------|


                                                                                 
--0--0--0--0--0--0--0--0--|--0--0--0--0--0--0--0--0--|--0--0--0--0--0--0--0--0--|
--0--0--0--0--0--0--0--0--|--0--0--0--0--0--0--0--0--|--0--0--0--0--0--0--0--0--|
--9--9--9--9--9--9--9--9--|--8--8--8--8--8--8--8--8--|--8--8--8--8--8--8--8--8--|
--9--9--9--9--9--9--9--9--|--9--9--9--9--9--9--9--9--|--9--9--9--9--9--9--9--9--|
--9--9--9--9--9--9--9--9--|--9--9--9--9--9--9--9--9--|--9--9--9--9--9--9--9--9--|
--------------------------|--------------------------|--------------------------|


                                                                                           
|----------------------------------|--------------------------|---------------------------|
|----------------------------------|--------------------------|---------------------------|
|*---------------------------------|-----------------------5--|--5--5--5------------------|
|*--5--5--5/-10-10-10--10--10\-5-5-|--5--5--5--2--2--2--2--5--|--5--5--5--4-4-4--4--4--5--|
|---5--5--5/-10-10-10--10--10\-5-5-|--5--5--5--2--2--2--2--3--|--3--3--3--4-4-4--4--4--5--|
|---3--3--3/-8--8--8---8---8-\-3-3-|--3--3--3--0--0--0--0-----|-----------2-2-2--2--2--3--|


                                                                                    
---------------------------||---------------------------|--------------------------|
---------------------------||---------------------------|--------------------------|
--------------------------*||--5--5--5------------------|--------------------------|
--5--5--5--5--5--5--5--5--*||--5--5--5--4-4-4--4--4--5--|--5--5--5--5--5--5--5--5--|
--5--5--5--5--5--5--5--5---||--3--3--3--4-4-4--4--4--5--|--5--5--5--5--5--5--5--5--|
--3--3--3--3--3--3--3--3---||-----------2-2-2--2--2--3--|--3--3--3--3--3--3--3--3--|


                                                                                 
--------------------------|--------------------------|--------------------------|
--------------------------|--------------------------|--------------------------|
--------------------------|--------------------------|--------------5--5--5--5--|
--7--7--7--7--6--6--6--6--|--5--5--5--5--5--5--5--5--|--7--7--7--7--5--5--5--5--|
--7--7--7--7--6--6--6--6--|--5--5--5--5--5--5--5--5--|--7--7--7--7--3--3--3--3--|
--5--5--5--5--4--4--4--4--|--3--3--3--3--3--3--3--3--|--5--5--5--5--------------|


                                                                                       
--------------------------|-------------------|-------------------|-------------------|
--------------------------|--5----------------|--4----------------|--3----------------|
--------------------------|--6----------------|--5----------------|--4----------------|
--5--5--5--5--5--5--5--5--|--7----------------|--6----------------|--5----------------|
--5--5--5--5--5--5--5--5--|--7----------------|--6----------------|--5----------------|
--3--3--3--3--3--3--3--3--|--5----------------|--4----------------|--3----------------|


                                                                      
--3----------------|------------------------|------------------------|
--3----------------|------------------------|------------------------|
--4----------------|-----------5----5----5--|-----------5----5----5--|
--5----------------|--2--2--2--5----5----5--|--2--2--2--5----5----5--|
--5----------------|--2--2--2--3----3----3--|--2--2--2--3----3----3--|
--3----------------|--0--0--0---------------|--0--0--0---------------|


                                                                           
------------------------|------------------------|------------------------|
------------------------|------------------------|------------------------|
-----------5----5----5--|--2--2--2--5----5----5--|-----------5----5----5--|
--2--2--2--5----5----5--|--2--2--2--5----5----5--|--2--2--2--5----5----5--|
--2--2--2--3----3----3--|--0--0--0--3----3----3--|--2--2--2--3----3----3--|
--0--0--0---------------|------------------------|--0--0--0---------------|


                                                                           
------------------------|------------------------|------------------------|
------------------------|------------------------|------------------------|
-----------5----5----5--|-----------5----5----5--|--2--2--2--5----5----5--|
--2--2--2--5----5----5--|--2--2--2--5----5----5--|--2--2--2--5----5----5--|
--2--2--2--3----3----3--|--2--2--2--3----3----3--|--0--0--0--3----3----3--|
--0--0--0---------------|--0--0--0---------------|------------------------|


                                                        4x                           
|---------------------------|---------------------------||--------------------------|
|---------------------------|---------------------------||--------------------------|
|*--------------------------|--------------------------*||--------------------------|
|*--7--7--7--7--6--6--6--6--|--5--5--5--5--5--5--5--5--*||--7--7--7--7--6--6--6--6--|
|---7--7--7--7--6--6--6--6--|--5--5--5--5--5--5--5--5---||--7--7--7--7--6--6--6--6--|
|---5--5--5--5--4--4--4--4--|--3--3--3--3--3--3--3--3---||--5--5--5--5--4--4--4--4--|


                                                                                 
--------------------------|--------------------------|--------------------------|
--------------------------|--------------------------|--------------------------|
--------------------------|--------------------------|--------------------------|
--5--5--5--5--5--5--5--5--|--7--7--7--7--6--6--6--6--|--5--5--5--5--5--5--5--5--|
--5--5--5--5--5--5--5--5--|--7--7--7--7--6--6--6--6--|--5--5--5--5--5--5--5--5--|
--3--3--3--3--3--3--3--3--|--5--5--5--5--4--4--4--4--|--3--3--3--3--3--3--3--3--|


                                                                            
------------------|------------------|------------------|------------------|
------------------|------------------|------------------|------------------|
------------------|------------------|------------------|------------------|
------------------|------------------|------------------|------------------|
------------------|------------------|------------------|------------------|
------------------|------------------|------------------|------------------|


                                                                                 
--------------------------|--------------------------|--------------------------|
--------------------------|--------------------------|--------------------------|
--------------------------|--------------------------|--------------5--5--5--5--|
--7--7--7--7--6--6--6--6--|--5--5--5--5--5--5--5--5--|--7--7--7--7--5--5--5--5--|
--7--7--7--7--6--6--6--6--|--5--5--5--5--5--5--5--5--|--7--7--7--7--3--3--3--3--|
--5--5--5--5--4--4--4--4--|--3--3--3--3--3--3--3--3--|--5--5--5--5--------------|


                                                                                 
--------------------------|--------------------------|--------------------------|
--------------------------|--------------------------|--------------------------|
--------------------------|--------------------------|--------------------------|
--5--5--5--5--5--5--5--5--|--7--7--7--7--6--6--6--6--|--5--5--5--5--5--5--5--5--|
--5--5--5--5--5--5--5--5--|--7--7--7--7--6--6--6--6--|--5--5--5--5--5--5--5--5--|
--3--3--3--3--3--3--3--3--|--5--5--5--5--4--4--4--4--|--3--3--3--3--3--3--3--3--|


                                                                                
-------------------|-------------------|-------------------|-------------------|
--5----------------|--4----------------|--3----------------|--3----------------|
--6----------------|--5----------------|--4----------------|--4----------------|
--7----------------|--6----------------|--5----------------|--5----------------|
--7----------------|--6----------------|--5----------------|--5----------------|
--5----------------|--4----------------|--3----------------|--3----------------|

[ Tab from: http://www.guitartabs.cc/tabs/t/that_dog/gagged_and_tied_tab.html ]
                                                                               
-------------------|-------------------|-------------------|------------------|
--5----------------|--4----------------|--3----------------|------------------|
--6----------------|--5----------------|--4----------------|------------------|
--7----------------|--6----------------|--5----------------|------------------|
--7----------------|--6----------------|--5----------------|------------------|
--5----------------|--4----------------|--3----------------|------------------|


                    
------------------||
------------------||
------------------||
------------------||
------------------||
------------------||


Guitar 2
Standard Tuning

Listen and play along



E||------------------|------------------|------------------|------------------|
B||------------------|------------------|------------------|------------------|
G||------------------|------------------|------------------|------------------|
D||------------------|------------------|------------------|------------------|
A||------------------|------------------|------------------|------------------|
E||------------------|------------------|------------------|------------------|


                                                                            
------------------|------------------|------------------|------------------|
------------------|------------------|------------------|------------------|
------------------|------------------|------------------|------------------|
------------------|------------------|------------------|------------------|
------------------|------------------|------------------|------------------|
------------------|------------------|------------------|------------------|


                                                                            
------------------|------------------|------------------|------------------|
------------------|------------------|------------------|------------------|
------------------|------------------|------------------|------------------|
------------------|------------------|------------------|------------------|
------------------|------------------|------------------|------------------|
------------------|------------------|------------------|------------------|


                                                                                
------------------|------------------||-------------------|-------------------||
------------------|------------------||-------------------|-------------------||
------------------|------------------||*------------------|------------------*||
------------------|------------------||*------------------|------------------*||
------------------|------------------||-------------------|-------------------||
------------------|------------------||-------------------|-------------------||


                                                                             
------------------|------------------|-------------------|------------------|
------------------|------------------|--7----------------|------------------|
------------------|------------------|--8----------------|------------------|
------------------|------------------|--9----------------|------------------|
------------------|------------------|--9----------------|------------------|
------------------|------------------|--7----------------|------------------|


                                                                                           
|----------------------------------|--------------------------|---------------------------|
|----------------------------------|--------------------------|---------------------------|
|*---------------------------------|-----------------------5--|--5--5--5------------------|
|*--5--5--5/-10-10-10--10--10\-5-5-|--5--5--5--2--2--2--2--5--|--5--5--5--4-4-4--4--4--5--|
|---5--5--5/-10-10-10--10--10\-5-5-|--5--5--5--2--2--2--2--3--|--3--3--3--4-4-4--4--4--5--|
|---3--3--3/-8--8--8---8---8-\-3-3-|--3--3--3--0--0--0--0-----|-----------2-2-2--2--2--3--|


                                                                                   
---------------------------||--------------------------|--------------------------|
---------------------------||--------------------------|--------------------------|
--------------------------*||--------------------------|--------------------------|
--5--5--5--5--5--5--5--5--*||--7--7--7--7--6--6--6--6--|--5--5--5--5--5--5--5--5--|
--5--5--5--5--5--5--5--5---||--7--7--7--7--6--6--6--6--|--5--5--5--5--5--5--5--5--|
--3--3--3--3--3--3--3--3---||--5--5--5--5--4--4--4--4--|--3--3--3--3--3--3--3--3--|


                                                                                 
--------------------------|--------------------------|-----------5--------------|
--------------------------|--------------------------|-----------5--5--5--------|
--------------5--5--5--5--|--------------------------|-----------6--6--6--6--6--|
--7--7--7--7--5--5--5--5--|--5--5--5--5--5--5--5--5--|--7--7--7--7--7--7--7--7--|
--7--7--7--7--3--3--3--3--|--5--5--5--5--5--5--5--5--|--7--7--7--7--7--7--7--7--|
--5--5--5--5--------------|--3--3--3--3--3--3--3--3--|--5--5--5--5--5--5--5--5--|


                                                                                 
-----------4--------------|-----------3--------------|--------------------------|
-----------4--4--4--------|-----------3--3--3--------|--------------------------|
-----------5--5--5--5--5--|-----------4--4--4--4--4--|--------------------------|
--6--6--6--6--6--6--6--6--|--5--5--5--5--5--5--5--5--|--5--5--5--5--5--5--5--5--|
--6--6--6--6--6--6--6--6--|--5--5--5--5--5--5--5--5--|--5--5--5--5--5--5--5--5--|
--4--4--4--4--4--4--4--4--|--3--3--3--3--3--3--3--3--|--3--3--3--3--3--3--3--3--|


                                                                            
------------------|------------------|------------------|------------------|
------------------|------------------|------------------|------------------|
------------------|------------------|------------------|------------------|
------------------|------------------|------------------|------------------|
------------------|------------------|------------------|------------------|
------------------|------------------|------------------|------------------|


                                                                            
------------------|------------------|------------------|------------------|
------------------|------------------|------------------|------------------|
------------------|------------------|------------------|------------------|
------------------|------------------|------------------|------------------|
------------------|------------------|------------------|------------------|
------------------|------------------|------------------|------------------|


                                                                            
------------------|------------------|------------------|------------------|
------------------|------------------|------------------|------------------|
------------------|------------------|------------------|------------------|
------------------|------------------|------------------|------------------|
------------------|------------------|------------------|------------------|
------------------|------------------|------------------|------------------|


                                                                            
------------------|------------------|------------------|------------------|
------------------|------------------|------------------|------------------|
------------------|------------------|------------------|------------------|
------------------|------------------|------------------|------------------|
------------------|------------------|------------------|------------------|
------------------|------------------|------------------|------------------|


                                                                          
------------------|------------------||----------------------------------|
------------------|------------------||----------------------------------|
------------------|------------------||*---------------------------------|
------------------|------------------||*--5--5--5/-10-10-10--10--10\-5-5-|
------------------|------------------||---5--5--5/-10-10-10--10--10\-5-5-|
------------------|------------------||---3--3--3/-8--8--8---8---8-\-3-3-|


                                                                                    
--------------------------|---------------------------|---------------------------||
--------------------------|---------------------------|---------------------------||
-----------------------5--|--5--5--5------------------|--------------------------*||
--5--5--5--2--2--2--2--5--|--5--5--5--4-4-4--4--4--5--|--5--5--5--5--5--5--5--5--*||
--5--5--5--2--2--2--2--3--|--3--3--3--4-4-4--4--4--5--|--5--5--5--5--5--5--5--5---||
--3--3--3--0--0--0--0-----|-----------2-2-2--2--2--3--|--3--3--3--3--3--3--3--3---||


                                                                                  
---------------------------|--------------------------|--------------------------|
---------------------------|--------------------------|--------------------------|
--5--5--5------------------|--------------------------|--------------------------|
--5--5--5--4-4-4--4--4--5--|--5--5--5--5--5--5--5--5--|--7--7--7--7--6--6--6--6--|
--3--3--3--4-4-4--4--4--5--|--5--5--5--5--5--5--5--5--|--7--7--7--7--6--6--6--6--|
-----------2-2-2--2--2--3--|--3--3--3--3--3--3--3--3--|--5--5--5--5--4--4--4--4--|


                                                                                 
--------------------------|--------------------------|--------------------------|
--------------------------|--------------------------|--------------------------|
--------------------------|--------------5--5--5--5--|--------------------------|
--5--5--5--5--5--5--5--5--|--7--7--7--7--5--5--5--5--|--5--5--5--5--5--5--5--5--|
--5--5--5--5--5--5--5--5--|--7--7--7--7--3--3--3--3--|--5--5--5--5--5--5--5--5--|
--3--3--3--3--3--3--3--3--|--5--5--5--5--------------|--3--3--3--3--3--3--3--3--|


                                                                                 
-----------5--------------|-----------4--------------|-----------3--------------|
-----------5--5--5--------|-----------4--4--4--------|-----------3--3--3--------|
-----------6--6--6--6--6--|-----------5--5--5--5--5--|-----------4--4--4--4--4--|
--7--7--7--7--7--7--7--7--|--6--6--6--6--6--6--6--6--|--5--5--5--5--5--5--5--5--|
--7--7--7--7--7--7--7--7--|--6--6--6--6--6--6--6--6--|--5--5--5--5--5--5--5--5--|
--5--5--5--5--5--5--5--5--|--4--4--4--4--4--4--4--4--|--3--3--3--3--3--3--3--3--|


                                                                             
--3----------------|------------------|------------------|------------------|
--3----------------|------------------|------------------|------------------|
--4----------------|------------------|------------------|------------------|
--5----------------|------------------|------------------|------------------|
--5----------------|------------------|------------------|------------------|
--3----------------|------------------|------------------|------------------|


                                                                                         
------------------|--12--12--12--12--12--12--12--12--|--12--12--12--12--12--12--12--12--|
------------------|--15--15--15--15--15--15--15--15--|--15--15--15--15--15--15--15--15--|
------------------|----------------------------------|----------------------------------|
------------------|----------------------------------|----------------------------------|
------------------|----------------------------------|----------------------------------|
------------------|----------------------------------|----------------------------------|


                                                                      
--12--12--12--12--12--12--12--12--|--12--12--12--12--12--12--12--12--|
--15--15--15--15--15--15--15--15--|--15--15--15--15--15--15--15--15--|
----------------------------------|----------------------------------|
----------------------------------|----------------------------------|
----------------------------------|----------------------------------|
----------------------------------|----------------------------------|


                                                                        4x
|---12--12--12--12--12--12--12--12--|--10--10--10--10--10--10--10--10---||
|---14--14--14--14--13--13--13--13--|--12--12--12--12--12--12--12--12---||
|*----------------------------------|----------------------------------*||
|*----------------------------------|----------------------------------*||
|-----------------------------------|-----------------------------------||
|-----------------------------------|-----------------------------------||


                                                                      
--12--12--12--12--12--12--12--12--|--10--10--10--10--10--10--10--10--|
--14--14--14--14--13--13--13--13--|--12--12--12--12--12--12--12--12--|
----------------------------------|----------------------------------|
----------------------------------|----------------------------------|
----------------------------------|----------------------------------|
----------------------------------|----------------------------------|


                                                                      
--12--12--12--12--12--12--12--12--|--10--10--10--10--10--10--10--10--|
--14--14--14--14--13--13--13--13--|--12--12--12--12--12--12--12--12--|
----------------------------------|----------------------------------|
----------------------------------|----------------------------------|
----------------------------------|----------------------------------|
----------------------------------|----------------------------------|


                                                                      
--12--12--12--12--12--12--12--12--|--10--10--10--10--10--10--10--10--|
--14--14--14--14--13--13--13--13--|--12--12--12--12--12--12--12--12--|
----------------------------------|----------------------------------|
----------------------------------|----------------------------------|
----------------------------------|----------------------------------|
----------------------------------|----------------------------------|


                                                                      
--12--12--12--12--12--12--12--12--|--10--10--10--10--10--10--10--10--|
--14--14--14--14--13--13--13--13--|--12--12--12--12--12--12--12--12--|
----------------------------------|----------------------------------|
----------------------------------|----------------------------------|
----------------------------------|----------------------------------|
----------------------------------|----------------------------------|


                                                                                 
--------------------------|--------------------------|--------------------------|
--------------------------|--------------------------|--------------------------|
--------------------------|--------------------------|--------------5--5--5--5--|
--7--7--7--7--6--6--6--6--|--5--5--5--5--5--5--5--5--|--7--7--7--7--5--5--5--5--|
--7--7--7--7--6--6--6--6--|--5--5--5--5--5--5--5--5--|--7--7--7--7--3--3--3--3--|
--5--5--5--5--4--4--4--4--|--3--3--3--3--3--3--3--3--|--5--5--5--5--------------|


                                                                                 
--------------------------|--------------------------|--------------------------|
--------------------------|--------------------------|--------------------------|
--------------------------|--------------------------|--------------------------|
--5--5--5--5--5--5--5--5--|--7--7--7--7--6--6--6--6--|--5--5--5--5--5--5--5--5--|
--5--5--5--5--5--5--5--5--|--7--7--7--7--6--6--6--6--|--5--5--5--5--5--5--5--5--|
--3--3--3--3--3--3--3--3--|--5--5--5--5--4--4--4--4--|--3--3--3--3--3--3--3--3--|


                                                                                 
-----------5--------------|-----------4--------------|-----------3--------------|
-----------5--5--5--------|-----------4--4--4--------|-----------3--3--3--------|
-----------6--6--6--6--6--|-----------5--5--5--5--5--|-----------4--4--4--4--4--|
--7--7--7--7--7--7--7--7--|--6--6--6--6--6--6--6--6--|--5--5--5--5--5--5--5--5--|
--7--7--7--7--7--7--7--7--|--6--6--6--6--6--6--6--6--|--5--5--5--5--5--5--5--5--|
--5--5--5--5--5--5--5--5--|--4--4--4--4--4--4--4--4--|--3--3--3--3--3--3--3--3--|


                                                                                       
--------------------------|--5----------------|--4----------------|--3----------------|
--------------------------|--5----------------|--4----------------|--3----------------|
--------------------------|--6----------------|--5----------------|--4----------------|
--5--5--5--5--5--5--5--5--|--7----------------|--6----------------|--5----------------|
--5--5--5--5--5--5--5--5--|--7----------------|--6----------------|--5----------------|
--3--3--3--3--3--3--3--3--|--5----------------|--4----------------|--3----------------|

http://www.stopforthatdog.com
http://thatdog.net
http://www.annawaronker.com


Comments