That Dog - Gagged And Tied Chords & Tabs

 

Gagged And Tied Chords & Tabs

That Dog Chords & Tabs

Version: 2 Type: Bass Tab 0 ratings
1 star 2 stars 3 stars 4 stars 5 stars
comments

Gagged And Tied Bass Tab

Artist: That Dog
Song: Gagged and Tied
Album: Retreat from the Sun

Intro:
G------------------------------------------------------|
D------------------------------------------------------|
A--222--3-3-33--222--3-3--33--222--3-3-33--222--3-3-33-|
E------------------------------------------------------|

Verse:
G------------------|-----------------|---------------------------------|
D------------------|-----------------|---------------------------------|
A--3--3-5-5--------|-2222222233333333|-22222222333333332222222222222222|
E------------7-7-7-|-----------------|---------------------------------|
[ Tab from: http://www.guitartabs.cc/tabs/t/that_dog/gagged_and_tied_btab_ver_2.html ]
Pre Chorus:
G----------------------------------------|
D----------------------------------------|
A-------3333------3333------3333---------|
E--3333------3333------3333------33333333|

Chorus:
G----------------------------------------------|-----------|
D----------------------------------------------|-----------|
A--3333--5555------------3333--5555------------|--3--5-----|
E--------------33333333--------------333333333-|---------3-|

Bridge:
G---------------|            G--------------------|
D---------------|            D--------------------|
A--2-222-3-3333-|   8x then  A--3333333322222222--|   6x
E---------------|            E--------------------|
Comments