That Dog - Gagged And Tied Chords & Tabs

 

Gagged And Tied Chords & Tabs

That Dog Chords & Tabs

Version: 1 Type: Bass Tab 0 ratings
1 star 2 stars 3 stars 4 stars 5 stars
comments

Gagged And Tied Bass Tab

that dog - gagged and tied

Submitted by: Alex Getts. None of this is my own work, Kudos to those that transcribed this.
I am only responsible for submitting this.

transcribed by: aaron wilson (amiloudenough@hotmail.com)

Bass
Standard Tuning


G||------------------------|------------------------|------------------------|
D||------------------------|------------------------|------------------------|
A||-----------3----3----3--|-----------3----3----3--|-----------3----3----3--|
E||--0--0--0---------------|--0--0--0---------------|--0--0--0---------------|


                                                                               
------------------------|--------------------------|--------------------------|
------------------------|--------------------------|--------------------------|
-----------3----3----3--|--------------------------|--------------------------|
--0--0--0---------------|--5--5--5--5--5--5--5--5--|--5--5--5--5--5--5--5--5--|


                                                                                 
--------------------------|--------------------------|--------------------------|
--------------------------|--------------------------|--------------------------|
--------------------------|-----------------7--------|--------------------------|
--5--5--5--5--5--5--5--5--|--5--5--5--5--5-----5--5--|--5--5--5--5--5--5--5--5--|


                                                                                 
--------------------------|--------------------------|--------------------------|
--------------------------|--------------------------|--------------------------|
--------------------------|--------------------------|--------------------------|
--5--5--5--5--5--5--5--5--|--5--5--5--5--5--5--5--5--|--5--5--5--5--5--5--5--5--|


                                                                                  
--------------------------|-------------------------||---------------------------|
--------------------------|-------------------------||*--------------------------|
--------------------------|-------------------------||*--------------------------|
--7--7--7--7--7--7--7--7--|--7--7--7--7--7--7--7----||---5--5--5--5--5--5--5--5--|


                                                                                   
---------------------------||--------------------------|--------------------------|
--------------------------*||--------------------------|--------------------------|
--------------------------*||--------------------------|--------------------------|
--5--5--5--5--5--5--5--5---||--7--7--7--7--7--7--7--7--|--7--7--7--7--7--7--7--7--|


                                                                                  
--------------------------|-------------------------||---------------------------|
--------------------------|-------------------------||*--------------------------|
--------------------------|-------------------------||*--------------------------|
--7--7--7--7--7--7--7--7--|--7--7--7--7--7--7--7----||---3--3--3/-8--8--8--8--3--|


                                                                                   
--------------------------|--------------------------|---------------------------||
--------------------------|--------------------------|--------------------------*||
-----------------------3--|--3--3--3-----------------|--------------------------*||
--3--3--3--0--0--0--0-----|-----------2--2--2--2--3--|--3--3--3--3--3--3--3--3---||


                                                                                 
--------------------------|--------------------------|--------------------------|
--------------------------|--------------------------|--------------------------|
--------------------------|--------------------------|--------------3--3--3--3--|
--5--5--5--5--4--4--4--4--|--3--3--3--3--3--3--3--3--|--5--5--5--5--------------|


                                                                                 
--------------------------|--------------------------|--------------------------|
--------------------------|--------------------------|--------------------------|
--------------------------|--------------------------|--------------------------|
--3--3--3--3--3--3--3--3--|--5--5--5--5--5--5--5--5--|--4--4--4--4--4--4--4--4--|


                                                                                       
--------------------------|------------------------|----------------------------------|
--------------------------|--5---------5-----------|----------------------------------|
-----------------------5--|---------5-----5--------|--12--12--12--12--12--12--12--12--|
--3--3--3--3--3--3--3-----|------------------3--3--|----------------------------------|


                                                                      
----------------------------------|----------------------------------|
----------------------------------|----------------------------------|
--12--12--12--12--12--12--12------|--12--12--12--12--12--12--12--12--|
------------------------------12--|----------------------------------|


                                                                      
----------------------------------|----------------------------------|
----------------------------------|----------------------------------|
--12--12--12--12--12--12--12--12--|--12--12--12--12--12--12--12--12--|
----------------------------------|----------------------------------|


                                                                      
----------------------------------|----------------------------------|
----------------------------------|----------------------------------|
--12--12--12--12--12--12--12--12--|--12--12--12--12--12--12--12--12--|
----------------------------------|----------------------------------|


                                                                                        
----------------------------------|--------------------------|-------------------------|
----------------------------------|--------------------------|-------------------------|
--12--12--12--12--12--12--12--12--|--------------------------|-------------------------|
----------------------------------|--7--7--7--7--7--7--7--7--|--7--7--7--7--7--7--7----|


                                                                      
----------------------------------|----------------------------------|
----------------------------------|----------------------------------|
--12--12--12--12--12--12--12--12--|--12--12--12--12--12--12--12--12--|
----------------------------------|----------------------------------|

[ Tab from: http://www.guitartabs.cc/tabs/t/that_dog/gagged_and_tied_btab.html ]
                                                                      
----------------------------------|----------------------------------|
----------------------------------|----------------------------------|
--12--12--12--12--12--12--12--12--|--12--12--12--12--12--12--12--12--|
----------------------------------|----------------------------------|


                                                                                 
--------------------------|--------------------------|--------------------------|
--------------------------|--------------------------|--------------------------|
--------------------------|--------------------------|--------------------------|
--7--7--7--7--7--7--7--7--|--7--7--7--7--7--7--7--7--|--7--7--7--7--7--7--7--7--|


                                                                                  
-------------------------||---------------------------|--------------------------|
-------------------------||*--------------------------|--------------------------|
-------------------------||*--------------------------|-----------------------3--|
--7--7--7--7--7--7--7----||---3--3--3/-8--8--8--8--3--|--3--3--3--0--0--0--0-----|


                                                                                   
--------------------------|---------------------------||--------------------------|
--------------------------|--------------------------*||--------------------------|
--3--3--3-----------------|--------------------------*||--3--3--3-----------------|
-----------2--2--2--2--3--|--3--3--3--3--3--3--3--3---||-----------2--2--2--2--3--|


                                                                                 
--------------------------|--------------------------|--------------------------|
--------------------------|--------------------------|--------------------------|
--------------------------|--------------------------|--------------------------|
--3--3--3--3--3--3--3--3--|--5--5--5--5--4--4--4--4--|--3--3--3--3--3--3--3--3--|


                                                                                 
--------------------------|--------------------------|--------------------------|
--------------------------|--------------------------|--------------------------|
--------------3--3--3--3--|--------------------------|--------------------------|
--5--5--5--5--------------|--3--3--3--3--3--3--3--3--|--5--5--5--5--5--5--5--5--|


                                                                          
--------------------------|--------------------------|-------------------|
--------------------------|--------------------------|-------------------|
--------------------------|--------------------------|-------------------|
--4--4--4--4--4--4--4--4--|--3--3--3--3--3--3--3--3--|--3----------------|


                                                                           
------------------------|------------------------|------------------------|
------------------------|------------------------|------------------------|
-----------3----3----3--|-----------3----3----3--|-----------3----3----3--|
--0--0--0---------------|--0--0--0---------------|--0--0--0---------------|


                                                                           
------------------------|------------------------|------------------------|
------------------------|------------------------|------------------------|
--0--0--0--3----3----3--|-----------3----3----3--|-----------3----3----3--|
------------------------|--0--0--0---------------|--0--0--0---------------|


                                                                               
------------------------|------------------------||---------------------------|
------------------------|------------------------||*--------------------------|
-----------3----3----3--|--0--0--0--3----3----3--||*--------------------------|
--0--0--0---------------|------------------------||---5--5--5--5--4--4--4--4--|


                           4x                                                      
---------------------------||--------------------------|--------------------------|
--------------------------*||--------------------------|--------------------------|
--------------------------*||--------------------------|--------------------------|
--3--3--3--3--3--3--3--3---||--5--5--5--5--4--4--4--4--|--3--3--3--3--3--3--3--3--|


                                                                                            
--------------------------|--------------------------|------------------|------------------|
--------------------------|--------------------------|------------------|------------------|
--------------------------|--------------------------|------------------|------------------|
--5--5--5--5--4--4--4--4--|--3--3--3--3--3--3--3--3--|------------------|------------------|


                                                                    
------------------|---------------------|--------------------------|
------------------|---------------------|--------------------------|
------------------|----------3/---10\---|--------------------------|
------------------|---------------------|--5--5--5--5--4--4--4--4--|


                                                                                 
--------------------------|--------------------------|--------------------------|
--------------------------|--------------------------|--------------------------|
--------------------------|--------------3--3--3--3--|--------------------------|
--3--3--3--3--3--3--3--3--|--5--5--5--5--------------|--3--3--3--3--3--3--3--3--|


                                                                                 
--------------------------|--------------------------|--------------------------|
--------------------------|--------------------------|--------------------------|
--------------------------|--------------------------|--------------------------|
--5--5--5--5--4--4--4--4--|--3--3--3--3--3--3--3--3--|--5--5--5--5--5--5--5--5--|


                                                                                 
--------------------------|--------------------------|--------------------------|
--------------------------|--------------------------|--------------------------|
--------------------------|--------------------------|--------------------------|
--4--4--4--4--4--4--4--4--|--3--3--3--3--3--3--3--3--|--3--3--3--3--3--3--3--3--|


                                                                               
-------------------|-------------------|-------------------|------------------|
-------------------|-------------------|-------------------|------------------|
-------------------|-------------------|-------------------|------------------|
--5----------------|--4----------------|--3----------------|------------------|


                    
------------------||
------------------||
------------------||
------------------||

http://www.stopforthatdog.com
http://thatdog.net
http://www.annawaronker.com
Comments