That Dog - Family Functions Chords & Tabs

 

Family Functions Chords & Tabs

That Dog Chords & Tabs

Version: 1 Type: Tab 0 ratings
1 star 2 stars 3 stars 4 stars 5 stars
comments

Family Functions Tab

that dog - family functions

Submitted by: Alex Getts. None of this is my own work, Kudos to those that transcribed this.
I am only responsible for submitting this.

transcribed by: aaron wilson (amiloudenough@hotmail.com)

Guitar
Open E Tuning

                                                                                      
E ||----------|------------------|------------------|------------------|------------------|
B ||----------|------------------|------------------|------------------|------------------|
G#||----------|------------------|------------------|------------------|------------------|
E ||----------|------------------|------------------|------------------|------------------|
B ||----------|------------------|------------------|------------------|------------------|
E ||----------|------------------|------------------|------------------|------------------|


                                                                            
------------------|------------------|------------------|------------------|
------------------|------------------|------------------|------------------|
------------------|------------------|------------------|------------------|
------------------|------------------|------------------|------------------|
------------------|------------------|------------------|------------------|
------------------|------------------|------------------|------------------|


                                                                            
------------------|------------------|------------------|------------------|
------------------|------------------|------------------|------------------|
------------------|------------------|------------------|------------------|
------------------|------------------|------------------|------------------|
------------------|------------------|------------------|------------------|
------------------|------------------|------------------|------------------|


                                                                            
------------------|------------------|------------------|------------------|
------------------|------------------|------------------|------------------|
------------------|------------------|------------------|------------------|
------------------|------------------|------------------|------------------|
------------------|------------------|------------------|------------------|
------------------|------------------|------------------|------------------|


                                                                                            
--0----0----4----4----|--5----5----0----0----|--2----2----5----5----|--0----0----0----0----|
--0----0----4----4----|--5----5----0----0----|--2----2----5----5----|--0----0----0----0----|
--0----0----4----4----|--5----5----0----0----|--2----2----5----5----|--0----0----0----0----|
--0----0----4----4----|--5----5----0----0----|--2----2----5----5----|--0----0----0----0----|
--0----0----4----4----|--5----5----0----0----|--2----2----5----5----|--0----0----0----0----|
--0----0----4----4----|--5----5----0----0----|--2----2----5----5----|--0----0----0----0----|

[ Tab from: http://www.guitartabs.cc/tabs/t/that_dog/family_functions_tab.html ]
                                                                                            
--0----0----4----4----|--5----5----0----0----|--2----2----5----5----|--0----0----0----0----|
--0----0----4----4----|--5----5----0----0----|--2----2----5----5----|--0----0----0----0----|
--0----0----4----4----|--5----5----0----0----|--2----2----5----5----|--0----0----0----0----|
--0----0----4----4----|--5----5----0----0----|--2----2----5----5----|--0----0----0----0----|
--0----0----4----4----|--5----5----0----0----|--2----2----5----5----|--0----0----0----0----|
--0----0----4----4----|--5----5----0----0----|--2----2----5----5----|--0----0----0----0----|


                                                                                 
--0--0--6--7--0--0--6--7--|--0--0--6--7--0--0--6--7--|--0--0--6--7--0--0--6--7--|
--0--0--6--7--0--0--6--7--|--0--0--6--7--0--0--6--7--|--0--0--6--7--0--0--6--7--|
--0--0--6--7--0--0--6--7--|--0--0--6--7--0--0--6--7--|--0--0--6--7--0--0--6--7--|
--0--0--6--7--0--0--6--7--|--0--0--6--7--0--0--6--7--|--0--0--6--7--0--0--6--7--|
--0--0--6--7--0--0--6--7--|--0--0--6--7--0--0--6--7--|--0--0--6--7--0--0--6--7--|
--0--0--6--7--0--0--6--7--|--0--0--6--7--0--0--6--7--|--0--0--6--7--0--0--6--7--|


                                                                                 
--0--0--6--7--0--0--6--7--|--0--0--6--7--0--0--6--7--|--0--0--6--7--5--5--5--5--|
--0--0--6--7--0--0--6--7--|--0--0--6--7--0--0--6--7--|--0--0--6--7--5--5--5--5--|
--0--0--6--7--0--0--6--7--|--0--0--6--7--0--0--6--7--|--0--0--6--7--5--5--5--5--|
--0--0--6--7--0--0--6--7--|--0--0--6--7--0--0--6--7--|--0--0--6--7--5--5--5--5--|
--0--0--6--7--0--0--6--7--|--0--0--6--7--0--0--6--7--|--0--0--6--7--5--5--5--5--|
--0--0--6--7--0--0--6--7--|--0--0--6--7--0--0--6--7--|--0--0--6--7--5--5--5--5--|


                                                                                 
--0--0--6--7--0--0--6--7--|--0--0--6--7--0--0--6--7--|--0--0--6--7--0--0--6--7--|
--0--0--6--7--0--0--6--7--|--0--0--6--7--0--0--6--7--|--0--0--6--7--0--0--6--7--|
--0--0--6--7--0--0--6--7--|--0--0--6--7--0--0--6--7--|--0--0--6--7--0--0--6--7--|
--0--0--6--7--0--0--6--7--|--0--0--6--7--0--0--6--7--|--0--0--6--7--0--0--6--7--|
--0--0--6--7--0--0--6--7--|--0--0--6--7--0--0--6--7--|--0--0--6--7--0--0--6--7--|
--0--0--6--7--0--0--6--7--|--0--0--6--7--0--0--6--7--|--0--0--6--7--0--0--6--7--|


                                                                                     
--0--0--6--7--5--5--5--5--|--0--------|--3----3----7----7----|--8----8----3----3----|
--0--0--6--7--5--5--5--5--|--0--------|--3----3----7----7----|--8----8----3----3----|
--0--0--6--7--5--5--5--5--|--0--------|--3----3----7----7----|--8----8----3----3----|
--0--0--6--7--5--5--5--5--|--0--------|--3----3----7----7----|--8----8----3----3----|
--0--0--6--7--5--5--5--5--|--0--------|--3----3----7----7----|--8----8----3----3----|
--0--0--6--7--5--5--5--5--|--0--------|--3----3----7----7----|--8----8----3----3----|


                                                                                            
--5----5----8----8----|--3----3----3----3----|--3----3----7----7----|--8----8----3----3----|
--5----5----8----8----|--3----3----3----3----|--3----3----7----7----|--8----8----3----3----|
--5----5----8----8----|--3----3----3----3----|--3----3----7----7----|--8----8----3----3----|
--5----5----8----8----|--3----3----3----3----|--3----3----7----7----|--8----8----3----3----|
--5----5----8----8----|--3----3----3----3----|--3----3----7----7----|--8----8----3----3----|
--5----5----8----8----|--3----3----3----3----|--3----3----7----7----|--8----8----3----3----|


                                            
--5----5----8----8----|--3----------------||
--5----5----8----8----|--3----------------||
--5----5----8----8----|--3----------------||
--5----5----8----8----|--3----------------||
--5----5----8----8----|--3----------------||
--5----5----8----8----|--3----------------||

http://www.stopforthatdog.com
http://thatdog.net
http://www.annawaronker.com
Comments