That Dog - Cowboy Hat Chords & Tabs

 

Cowboy Hat Chords & Tabs

That Dog Chords & Tabs

Version: 1 Type: Bass Tab 0 ratings
1 star 2 stars 3 stars 4 stars 5 stars
comments

Cowboy Hat Bass Tab

that dog - cowboy hat

Submitted by: Alex Getts. None of this is my own work, Kudos to those that transcribed this.
I am only responsible for submitting this.

transcribed by: aaron wilson (amiloudenough@hotmail.com)

Bass
Standard Tuning


G||--------------------------|--------------------------|--------------------------|
D||--------------------------|--------------------------|--------------------------|
A||--------------------------|--------------------------|--------------------------|
E||--------------------------|--------------------------|--------------------------|


                                                                 
--------------------------||------------------------------------|
--------------------------||*-----------------------------------|
--------------------------||*---------4--4--------4-------4-----|
--------------------------||---1/-----------1--2-----2-------2--|


                                                                          
------------------------------------||-----------------------------------|
---------4-----4-----4-------4-----*||-----------------------------------|
--2---------2-----3-----3-------3--*||---------4--4--------4-------4-----|
------------------------------------||--1/-----------1--2-----2-------2--|


                                                                                4x
--------------------------------------||----------------------------------------||
-----4-----4-----4-----4-----4-----4--||*--------------------------------------*||
--2-----2-----2-----3-----3-----3-----||*--------------------------------------*||
--------------------------------------||---2--2--2/-7--7--7\-4--4--4/-7--7--7---||


                                                                                            
----------------------------------------|--------------------------------------------------|
----------------------------------------|--------------------------------------------------|
--8--8--8--8--8--6h8-9--9--9--9--9--8h9-|--11--11--11--11--11--11h13-11--11--11--11--9--8--|
----------------------------------------|--------------------------------------------------|


                                                                                            
----------------------------------------|--------------------------------------------------|
----------------------------------------|--------------------------------------------------|
--8--8--8--8--8--6h8-9--9--9--9--9--8h9-|--11--11--11--11--11--11h13-11--11--11--11--9--8--|
----------------------------------------|--------------------------------------------------|


                                                                                            
|-----------------------------------------|-----------------------------------------------||
|*-------11-----11--------11-------11-----|------16--------16----------16--------16------*||
|*--8--------8------8--9------9--------9/-|--14------14--------14--15------15--------15--*||
|-----------------------------------------|-----------------------------------------------||


                                                                                            
----------------------------------------|--------------------------------------------------|
-------11-----11--------11-------11-----|------16------16------16------16------16------16--|
--8--------8------8--9------9--------9/-|--14------14------14------15------15------15------|
----------------------------------------|--------------------------------------------------|


                                         4x                                         
|----------------------------------------||----------------------------------------|
|*--------------------------------------*||----------------------------------------|
|*--------------------------------------*||--8--8--8--8--8--6h8-9--9--9--9--9--8h9-|
|---2--2--2/-7--7--7\-4--4--4/-7--7--7---||----------------------------------------|

[ Tab from: http://www.guitartabs.cc/tabs/t/that_dog/cowboy_hat_btab.html ]
                                                                                            
--------------------------------------------------|----------------------------------------|
--------------------------------------------------|-------11-----11--------11-----11-------|
--11--11--11--11--11--11h13-11--11--11--11--9--8--|--8--------8------8--9------9--------9/-|
--------------------------------------------------|----------------------------------------|


                                                                                            
--------------------------------------------------|----------------------------------------|
------16------16------16------16------16------16--|----------------------------------------|
--14------14------14------15------15------15------|--8--8--8--8--8--6h8-9--9--9--9--9--8h9-|
--------------------------------------------------|----------------------------------------|


                                                                                      
--------------------------------------------------|----------------------------------|
--------------------------------------------------|----------------------------------|
--11--11--11--11--11--11h13-11--11--11--11--9--8--|--8----8--6----8--9----9--8----9\-|
--------------------------------------------------|----------------------------------|


                                                                    
----------------------------|--------------------------------------|
----------------------------|--------------------------------------|
--2-------------------------|--------------------------------------|
---------------4------------|--2--2--2/-7--7--7\-4--4--4/-7--7--7--|


                                                                              
--------------------------------------|--------------------------------------|
--------------------------------------|--------------------------------------|
--------------------------------------|--------------------------------------|
--2--2--2/-7--7--7\-4--4--4/-7--7--7--|--2--2--2/-7--7--7\-4--4--4/-7--7--7--|


                                                                                4x
--------------------------------------||----------------------------------------||
--------------------------------------||*--------------------------------------*||
--------------------------------------||*--------------------------------------*||
--2--2--2/-7--7--7\-4--4--4/-7--7--7--||---2--2--2/-7--7--7\-4--4--4/-7--7--7---||


                                                                                 
----------------------------------------||--------------------------------------|
*--------------------------------------*||--------------------------------------|
*--------------------------------------*||--------------------------------------|
---2--2--2/-7--7--7\-4--4--4/-7--7--7---||--2--2--2/-7--7--7\-4--4--4/-7--7--7--|


                                                                              
--------------------------------------|--------------------------------------|
--------------------------------------|--------4--------9--------6--------9--|
--------------------------------------|-----4--------9--------6--------9-----|
--2--2--2/-7--7--7\-4--4--4/-7--7--7--|--2--------7--------4--------7--------|


                                                                              
--------------------------------------|--------------------------------------|
--------4--------9--------6--------5--|--------4--------9--------6--------9--|
-----4--------9--------6--------5-----|-----4--------9--------6--------9-----|
--2--------7--------4--------3--------|--2--------7--------4--------7--------|


                                                                                
--------------------------------------||---------------------------------------|
--------4--------9--------6--------5--||*--------4--------9--------6--------9--|
-----4--------9--------6--------5-----||*-----4--------9--------6--------9-----|
--2--------7--------4--------3--------||---2--------7--------4--------7--------|


Fade out...                                         
---------------------------------------||
--------4--------9--------6--------5--*||
-----4--------9--------6--------5-----*||
--2--------7--------4--------3---------||

http://www.stopforthatdog.com
http://thatdog.net
http://www.annawaronker.com

Comments