That Dog - Back Of My Mind Chords & Tabs

 

Back Of My Mind Chords & Tabs

That Dog Chords & Tabs

Version: 1 Type: Tab 0 ratings
1 star 2 stars 3 stars 4 stars 5 stars
comments

Back Of My Mind Tab

that dog - back of my mind

Submitted by: Alex Getts. None of this is my own work, Kudos to those that transcribed this.
I am only responsible for submitting this.

transcribed by: aaron wilson (amiloudenough@hotmail.com)

Guitar
Open E Tuning

                                                               
E ||--------------------------------------|--------------------------------------|
B ||--------------------------------------|--------------------------------------|
G#||--------------------------------------|--------------------------------------|
E ||--------0--------0--------0--------0--|--------0--------0--------0--------0--|
B ||-----4--------0--------3--------0-----|-----4--------0--------3--------0-----|
E ||--5--------0--------3--------0--------|--5--------0--------3--------0--------|


                                                                                     
-----------------------------------||-----------------------------------------------|
-----------------------------------||-----------------------------------------------|
-----------------------------------||*--0--0-0-0-0-0--0-0-0-0-0--0-0-0-0-0--0-0-0-0-|
--------0--------0--------0--------||*--0--0-0-0-0-0--0-0-0-0-0--0-3-3-3-0--0-0-0-0-|
-----4--------0--------3-----------||---4--4-4-4-4-0--0-0-0-0-3--3-3-3-3-0--0-0-0-0-|
--5--------0--------3--------------||---5--5-5-5-5-0--0-0-0-0-3--3-3-3-3-0--0-0-0-0-|


                                              4x
----------------------------------------------||
----------------------------------------------||
--0--0-0-0-0-0---------0--0-0-0-0-0--0-0-0-0-*||
--0--0-0-0-0-0--x-x-x--0--0-0-0-0-0--0-0-0-0-*||
--4--4-4-4-4-0--x-x-x--3--3-3-3-3-0--0-0-0-0--||
--5--5-5-5-5-0--x-x-x--3--3-3-3-3-0--0-0-0-0--||


                                               
----------------------------------------------|
--0--0-0-0-0-0--0-0-0-0-0--0-0-0-0-0--0-0-0-0-|
--0--0-0-0-0-0--0-0-0-0-0--0-0-0-0-0--0-0-0-0-|
--0--0-0-0-0-0--0-0-0-0-5--5-5-5-5-5--5-5-5-5-|
--4--4-4-4-4-4--4-4-4-4-5--5-5-5-5-5--5-5-5-5-|
--0--0-0-0-0-0--0-0-0-0-0--0-0-0-0-0--0-0-0-0-|


                                               
----------------------------------------------|
--0--0-0-0-0-0--0-0-0-0-0--0-0-0-0-0--0-0-0-0-|
--0--0-0-0-0-0--0-0-0-0-0--0-0-0-0-0--0-0-0-0-|
--0--0-0-0-0-0--0-0-0-0-5--5-5-5-5-5--5-5-5-5-|
--4--4-4-4-4-4--4-4-4-4-5--5-5-5-5-5--5-5-5-5-|
--0--0-0-0-0-0--0-0-0-0-0--0-0-0-0-0--0-0-0-0-|


                                                                                            
----------------------------------------------|--------------------------------------------|
--0--0-0-0-0-0--0-0-0-0-0--0-0-0-0-0--0-0-0-0-|--------------------------------------------|
--0--0-0-0-0-0--0-0-0-0-0--0-0-0-0-0--0-0-0-0-|--------------------------------------------|
--0--0-0-0-0-0--0-0-0-0-5--5-5-5-5-5--5-5-5-5-|--0--0-0-0-0-0--x-x-x--3--3-3-3-3-0--x-x-x--|
--4--4-4-4-4-4--4-4-4-4-5--5-5-5-5-5--5-5-5-5-|--4--4-4-4-4-0--x-x-x--3--3-3-3-3-0--x-x-x--|
--0--0-0-0-0-0--0-0-0-0-0--0-0-0-0-0--0-0-0-0-|--5--5-5-5-5-0--x-x-x--3--3-3-3-3-0--x-x-x--|

[ Tab from: http://www.guitartabs.cc/tabs/t/that_dog/back_of_my_mind_tab.html ]
                                                                                             
---------------------------------------------|----------------------------------------------|
---------------------------------------------|----------------------------------------------|
---------------------------------------------|----------------------------------------------|
--0--0-0-0-0-0--x-x-x--3--3-3-3-3-0--0-0-0-0-|--0--0-0-0-0-0--0-0-0-0------3-3-3-0--0-0-0-0-|
--4--4-4-4-4-0--x-x-x--3--3-3-3-3-0--0-0-0-0-|--4--4-4-4-4-0--0-0-0-0-3--3-3-3-3-0--0-0-0-0-|
--5--5-5-5-5-0--x-x-x--3--3-3-3-3-0--0-0-0-0-|--5--5-5-5-5-0--0-0-0-0-3--3-3-3-3-0--0-0-0-0-|


                                                                                             
---------------------------------------------|----------------------------------------------|
---------------------------------------------|----------------------------------------------|
----------------x-x-x------------------------|----------------------------------------------|
--0--0-0-0-0-0--x-x-x--3--3-3-3-3-0--0-0-0-0-|--0--0-0-0-0-0--0-0-0-0------3-3-3-0--0-0-0-0-|
--4--4-4-4-4-0--x-x-x--3--3-3-3-3-0--0-0-0-0-|--4--4-4-4-4-0--0-0-0-0-3--3-3-3-3-0--0-0-0-0-|
--5--5-5-5-5-0--x-x-x--3--3-3-3-3-0--0-0-0-0-|--5--5-5-5-5-0--0-0-0-0-3--3-3-3-3-0--0-0-0-0-|


                                                                                             
---------------------------------------------|----------------------------------------------|
---------------------------------------------|----------------------------------------------|
----------------x-x-x------------------------|----------------------------------------------|
--0--0-0-0-0-0--x-x-x--3--3-3-3-3-0--0-0-0-0-|--0--0-0-0-0-0--0-0-0-0------3-3-3-0--0-0-0-0-|
--4--4-4-4-4-0--x-x-x--3--3-3-3-3-0--0-0-0-0-|--4--4-4-4-4-0--0-0-0-0-3--3-3-3-3-0--0-0-0-0-|
--5--5-5-5-5-0--x-x-x--3--3-3-3-3-0--0-0-0-0-|--5--5-5-5-5-0--0-0-0-0-3--3-3-3-3-0--0-0-0-0-|


                                                                                             
---------------------------------------------|----------------------------------------------|
---------------------------------------------|----------------------------------------------|
----------------x-x-x------------------------|----------------------------------------------|
--0--0-0-0-0-0--x-x-x--3--3-3-3-3-0--0-0-0-0-|--0--0-0-0-0-0--0-0-0-0------3-3-3-0--0-0-0-0-|
--4--4-4-4-4-0--x-x-x--3--3-3-3-3-0--0-0-0-0-|--4--4-4-4-4-0--0-0-0-0-3--3-3-3-3-0--0-0-0-0-|
--5--5-5-5-5-0--x-x-x--3--3-3-3-3-0--0-0-0-0-|--5--5-5-5-5-0--0-0-0-0-3--3-3-3-3-0--0-0-0-0-|


                                                 
|---------------------------------------------|---------------------------------------------|
|---------------------------------------------|---------------------------------------------|
|----------------x-x-x------------------------|----------------x-x-x------------------------|
|--0--0-0-0-0-0--x-x-x--3--3-3-3-3-0--x-x-x---|--0--0-0-0-0-0--x-x-x--3--3-3-3-3-0----------|
|--4--4-4-4-4-0--x-x-x--3--3-3-3-3-0--x-x-x---|--4--4-4-4-4-0--x-x-x--3--3-3-3-3-0----------|
|--5--5-5-5-5-0--x-x-x--3--3-3-3-3-0--x-x-x---|--5--5-5-5-5-0--x-x-x--3--3-3-3-3-0----------|

http://www.stopforthatdog.com
http://thatdog.net
http://www.annawaronker.com
Comments