That Dog - Back Of My Mind Chords & Tabs

 

Back Of My Mind Chords & Tabs

That Dog Chords & Tabs

Version: 1 Type: Bass Tab 0 ratings
1 star 2 stars 3 stars 4 stars 5 stars
comments

Back Of My Mind Bass Tab

that dog - back of my mind

Submitted by: Alex Getts. None of this is my own work, Kudos to those that transcribed this.
I am only responsible for submitting this.

transcribed by: aaron wilson (amiloudenough@hotmail.com)

Bass
Standard Tuning

                                        
G||------------------|-----8--9--9h11--9-----------7--7h9----9-9-9-|
D||------------------|--7-----------------9--5--7------------------|
A||------------------|---------------------------------------------|
E||------------------|---------------------------------------------|


                                                                                    
-----8--9--9----9\-7--7--7--------||-----------------------------------------------|
--7-------------------------------||*----------------------------------------------|
----------------------------------||*----------------------------------------------|
----------------------------------||---5--5-5-5-5-0--0-0-0-0-3--3-3-3-3-0--0-0-0-0-|


                                           4x                                   
-------------------------------------------||----------------------------------|
------------------------------------------*||----------------------------------|
------------------------------------------*||--------------------------7-------|
--5--5-5-5-5-0------3--3-3-3-3-0--0-0-0-0--||--0----0--0----0--0----0-------0--|


                                                                      
----------------------------------|----------------------------------|
--------------------------7-------|--------------------------7-------|
----------------------------------|----------------------------------|
--0----0--0----0--0----0-------0--|--0----0--0----0--0----0-------0--|

[ Tab from: http://www.guitartabs.cc/tabs/t/that_dog/back_of_my_mind_btab.html ]
                                                                                  
--------------------------------------|------------------------------------------|
--------------------------------------|------------------------------------------|
--------------------------------------|------------------------------------------|
--5--5-5-5-5-0------3--3-3-3-3-0------|--5--5-5-5-5-0------3--3-3-3-3-0--0-0-0-0-|


                                                                                      
-------------------------------------------|---------------------------------------------|
-------------------------------------------|---------------------------------------------|
-----6--7--7h9--7-----------5--5h7---7-7-7-|-----6--7--7/-17\-7--------------------------|
--5----------------7--3--5-----------------|--5-----------------0-3--3-3-3-3-0-0-0-0-0-0-|


                                                                                    
-------------------------------------------|-------------------------------------------|
-------------------------------------------|-------------------------------------------|
-----6--7--7h9--7-----------5--5h7---7-7-7-|-----6--7--7\---0--------------------------|
--5----------------7--3--5-----------------|--5---------------0-3--3-3-3-3-0-0-0-0-0-0-|


                                                   
--------------------------------------------------|
--------------------------------------------------|
--------------------------------------------------|
--5-5-5-5-5-5-0-0-0-0-0-0-3-3-3-3-3-3-0-0-0-0-0-0-|


                                              
---------------------------------------------|
---------------------------------------------|
---------------------------------------------|
--5-5-5-5-5-5-0------3-3-3-3-3-3-0-0-0-0-0-0-|


                                                                                            
--------------------------------------------------|----------------------------------------|
--------------------------------------------------|----------------------------------------|
--------------------------------------------------|----------------------------------------|
--5-5-5-5-5-5-0-0-0-0-0-0-3-3-3-3-3-3-0-0-0-0-0-0-|--5-5-5-5-5-5-0------3-3-3-3-3-3-0------|


                                          
----------------------------------------||
----------------------------------------||
----------------------------------------||
--5-5-5-5-5-5-0------3-3-3-3-3-3-0------||

http://www.stopforthatdog.com
http://thatdog.net
http://www.annawaronker.com

Comments