That Dog - Annie Chords & Tabs

 

Annie Chords & Tabs

That Dog Chords & Tabs

Version: 1 Type: Bass Tab 0 ratings
1 star 2 stars 3 stars 4 stars 5 stars
comments

Annie Bass Tab

that dog - annie

Submitted by: Alex Getts. None of this is my own work, Kudos to those that transcribed this.
I am only responsible for submitting this.

transcribed by: aaron wilson (amiloudenough@hotmail.com)

Bass
Standard Tuning

                                                                        
G||--------------------------|--------------------------|--------------------------|
D||--------------------------|--------------------------|--------------------------|
A||--------------------------|--3--3--3--3--3--3--3--3--|--------------------------|
E||--0--0--0--0--0--0--0--0--|--------------------------|--2--2--2--2--2--2--2--2--|


                                                                                 
--------------------------|--------------------------|--------------------------|
--------------------------|--------------------------|--------------------------|
--------------------------|--------------------------|--------------------------|
--5--5--5--5--5--5--5--5--|--0--0--0--0--0--0--0--0--|--1--1--1--1--1--1--1--1--|


                                                                                 
--------------------------|--------------------------|--------------------------|
--------------------------|--------------------------|--------------------------|
--------------------------|--------------------------|--------------------------|
--2--2--2--2--2--2--2--2--|--3--3--3--3--3--3--3--3--|--7--7--7--7--7--7--7--7--|


                                                                                 
--------------------------|--------------------------|--------------------------|
--------------------------|--------------------------|--------------------------|
--------------------------|--4--4--4--4--4--4--4--4--|--7--7--7--7--7--7--7--7--|
--6--6--6--6--6--6--6--6--|--------------------------|--------------------------|


                                                                                
--------------------------|-------------------------|--------------------------|
--------------------------|-------------------------|--------------------------|
--------------------------|-------------------------|--------------------------|
--1--1--1--1--1--1--1--2/-|--5--5--5--2--2--2--2----|--1--1--1--1--1--1--1--2/-|


                                                                               
-------------------------|--------------------------|-------------------------|
-------------------------|--------------------------|-------------------------|
-------------------------|--------------------------|-------------------------|
--5--5--5--2--2--2--2----|--1--1--1--1--1--1--1--2/-|--5--5--5--2--2--2--2----|


                                                                                  
--------------------------|-------------------------||---------------------------|
--------------------------|-------------------------||*--------------------------|
--------------------------|-------------------------||*--------------------------|
--1--1--1--1--1--1--1--2/-|--5--5--5--2--2--2--2----||---1--1--1--1--1--1--1--2/-|


                                                                                 
--------------------------||--------------------------|-------------------------|
-------------------------*||--------------------------|-------------------------|
-------------------------*||--------------------------|-------------------------|
--5--5--5--2--2--2--2-----||--1--1--1--1--1--1--1--2/-|--5--5--5--2--2--2--2----|


                                                                                
--------------------------|-------------------------|--------------------------|
--------------------------|-------------------------|--------------------------|
--------------------------|-------------------------|--------------------------|
--1--1--1--1--1--1--1--2/-|--5--5--5--2--2--2--2----|--1--1--1--1--1--1--1--2/-|


                                                                               
-------------------------|--------------------------|-------------------------|
-------------------------|--------------------------|-------------------------|
-------------------------|--------------------------|-------------------------|
--5--5--5--2--2--2--2----|--1--1--1--1--1--1--1--2/-|--5--5--5--2--2--2--2----|


                                                                                
--------------------------|-------------------------|--------------------------|
--------------------------|-------------------------|--------------------------|
--------------------------|-------------------------|--------------------------|
--1--1--1--1--1--1--1--2/-|--5--5--5--2--2--2--2----|--1--1--1--1--1--1--1--2/-|


                                                                                
-------------------------|--------------------------|--------------------------|
-------------------------|--------------------------|--------------------------|
-------------------------|--------------------------|--------------------------|
--5--5--5--2--2--2--2----|--1--1--1--1--1--1--1--2/-|--5--5--5--2--2--2--2--2--|


                                                                                 
--------------------------|--------------------------|--------------------------|
--------------------------|--------------------------|--------------------------|
--------------------------|--3--3--3--3--3--3--3--3--|--4--4--4--4--4--4--4--4--|
--0--0--0--0--0--0--0--0--|--------------------------|--------------------------|


                                                                                 
--------------------------|--------------------------|--------------------------|
--------------------------|--------------------------|--------------------------|
--------------------------|--------------------------|--3--3--3--3--3--3--3--3--|
--5--5--5--5--5--5--5--5--|--0--0--0--0--0--0--0--0--|--------------------------|


                                                                             
--------------------------|----------------------|--------------------------|
--------------------------|----------------------|--------------------------|
--4--4--4--4--4--4--4--4--|----------------------|--------------------------|
--------------------------|----5--5------7--7----|--0--0--0--0--0--0--0--0--|


                                                                                 
--------------------------|--------------------------|--------------------------|
--------------------------|--------------------------|--------------------------|
--3--3--3--3--3--3--3--3--|--4--4--4--4--4--4--4--4--|--------------------------|
--------------------------|--------------------------|--5--5--5--5--5--5--5--5--|


                                                                                 
--------------------------|--------------------------|--------------------------|
--------------------------|--------------------------|--------------------------|
--------------------------|--3--3--3--3--3--3--3--3--|--4--4--4--4--4--4--4--4--|
--0--0--0--0--0--0--0--0--|--------------------------|--------------------------|


                                                                                
----------------------||---------------------------|--------------------------||
----------------------||*--------------------------|-------------------------*||
----------------------||*--------------------------|-------------------------*||
----5--5------7--7----||---1--1--1--1--1--1--1--2/-|--5--5--5--2--2--2--2-----||

[ Tab from: http://www.guitartabs.cc/tabs/t/that_dog/annie_btab.html ]
                                                                                
--------------------------|-------------------------|--------------------------|
--------------------------|-------------------------|--------------------------|
--------------------------|-------------------------|--------------------------|
--1--1--1--1--1--1--1--2/-|--5--5--5--2--2--2--2----|--1--1--1--1--1--1--1--1--|


                                                                               
-------------------------|--------------------------|-------------------------|
-------------------------|--------------------------|-------------------------|
-------------------------|--------------------------|-------------------------|
--5--5--5--2--2--2--2----|--1--1--1--1--1--1--1--1--|--5--5--5--2--2--2--2----|


                                                                                
--------------------------|-------------------------|--------------------------|
--------------------------|-------------------------|--------------------------|
--------------------------|-------------------------|--------------------------|
--1--1--1--1--1--1--1--1--|--5--5--5--2--2--2--2----|--1--1--1--1--1--1--1--2/-|


                                                                               
-------------------------|--------------------------|-------------------------|
-------------------------|--------------------------|-------------------------|
-------------------------|--------------------------|-------------------------|
--5--5--5--2--2--2--2----|--1--1--1--1--1--1--1--2/-|--5--5--5--2--2--2--2----|


                                                                                
--------------------------|-------------------------|--------------------------|
--------------------------|-------------------------|--------------------------|
--------------------------|-------------------------|--------------------------|
--1--1--1--1--1--1--1--2/-|--5--5--5--2--2--2--2----|--1--1--1--1--1--1--1--1--|


                                                                                
-------------------------|--------------------------|--------------------------|
-------------------------|--------------------------|--------------------------|
-------------------------|--------------------------|--------------------------|
--5--5--5--2--2--2--2----|--1--1--1--1--1--1--1--2/-|--5--5--5--2--2--2--2--2--|


                                                                                
--------------------------|--------------------------|-------------------------|
--------------------------|--------------------------|-------------------------|
--------------------------|--3--3--3--3--3--3--3--3--|-----------4-------4-----|
--0--0--0--0--0--0--0--0--|--------------------------|--2--2--2-------2-----2--|


                                                                              
-----------------------|--------------------------|--------------------------|
-----------------------|--------------------------|--------------------------|
-----------7--6--------|--------------------------|--------------------------|
--5--5--5--------------|--0--0--0--0--0--0--0--0--|--1--1--1--1--1--1--1--1--|


                                                                                 
--------------------------|--------------------------|--------------------------|
--------------------------|--------------------------|--------------------------|
--------------------------|--------------------------|--------------------------|
--2--2--2--2--2--2--2--2--|--3--3--3--3--3--3--3--3--|--7--7--7--7--7--7--7--7--|


                                                                                 
--------------------------|--------------------------|--------------------------|
--------------------------|--------------------------|--------------------------|
--------------------------|--4--4--4--4--4--4--4--4--|--7--7--7--7--7--7--7--7--|
--6--6--6--6--6--6--6--6--|--------------------------|--------------------------|


                                                                                 
--------------------------|--------------------------|--------------------------|
--------------------------|-----------5--------5-----|-----------6--------6-----|
--------------------------|--3--3--3-----3--3-----3--|--4--4--4-----4--4-----4--|
--0--0--0--0--0--0--0--0--|--------------------------|--------------------------|


                                                                               
------------------------|--------------------------|--------------------------|
------------------------|--------------------------|-----------5--------5-----|
------------------------|--------------------------|--3--3--3-----3--3-----3--|
----5--5--5----7--7--7--|--0--0--0--0--0--0--0--0--|--------------------------|


                                                                                 
--------------------------|--------------------------|--------------------------|
-----------6--------6-----|--------------------------|--------------------------|
--4--4--4-----4--4-----4--|--------------------------|--------------------------|
--------------------------|--5--5--5--7--7--7--7--7--|--0--0--0--0--0--0--0--0--|


                                                                                
--------------------------|--------------------------|-------------------------|
-----------5--------5-----|-----------6--------6-----|-------------------------|
--3--3--3-----3--3-----3--|--4--4--4-----4--4-----4--|-------------------------|
--------------------------|--------------------------|----5--5--5--5--5--5--5--|


                                                                                 
--------------------------|--------------------------|--------------------------|
--------------------------|--------------------------|--------------------------|
--------------------------|--------------------------|--------------------------|
--1--1--1--1--1--1--1--2/-|--5--5--5--2--2--2--2--2--|--1--1--1--1--1--1--1--2/-|


                                                                                 
--------------------------|--------------------------|--------------------------|
--------------------------|--------------------------|--------------------------|
--------------------------|--------------------------|--------------------------|
--5--5--5--2--2--2--2--2--|--1--1--1--1--1--1--1--2/-|--5--5--5--2--2--2--2--2--|


                                                                                 
--------------------------|--------------------------|--------------------------|
--------------------------|--------------------------|--------------------------|
--------------------------|--------------------------|--------------------------|
--1--1--1--1--1--1--1--2/-|--5--5--5--2--2--2--2--2--|--1--1--1--1--1--1--1--2/-|


                                                                               
-------------------------|--------------------------|-------------------------|
-------------------------|--------------------------|-------------------------|
-------------------------|--------------------------|-------------------------|
--5--5--5--2--2--2--2----|--1--1--1--1--1--1--1--2/-|--5--5--5--2--2--2--2----|


                                                                                           
--------------------------|-------------------------|------------------|------------------|
--------------------------|-------------------------|------------------|------------------|
--------------------------|-------------------------|------------------|------------------|
--1--1--1--1--1--1--1--2/-|--5--5--5--2--2--2--2----|------------------|------------------|

http://www.stopforthatdog.com
http://thatdog.net
http://www.annawaronker.com


Comments