That Dog - Angel Chords & Tabs

 

Angel Chords & Tabs

That Dog Chords & Tabs

Version: 1 Type: Tab 0 ratings
1 star 2 stars 3 stars 4 stars 5 stars
comments

Angel Tab

that dog - angel

Submitted by: Alex Getts. None of this is my own work, Kudos to those that transcribed this.
I am only responsible for submitting this.

transcribed by: aaron wilson (amiloudenough@hotmail.com)

Guitar
Open E Tuning (recorded version has slightly higher pitch)


E ||----------------------|----------------------|----------------------|
B ||----------------------|----------------------|----------------------|
G#||-----------------0----|-----------------0----|----------------------|
E ||------------3---------|------------5---------|------------6---------|
B ||-------3--------------|-------5--------------|-------6--------------|
E ||--3-------------------|--5-------------------|--6--------------3----|


                                                                                           
---------------------|----------------------|----------------------|----------------------|
---------------------|----------------------|----------------------|----------------------|
------------0--------|-----------------0----|-----------------0----|----------------------|
-------3-------------|------------3---------|------------5---------|------------6---------|
--3------------------|-------3--------------|-------5--------------|-------6--------------|
---------------------|--3-------------------|--5-------------------|--6--------------3----|


                                                                                          
------------------||-----------------------|----------------------|----------------------|
------------------||-----------------------|----------------------|----------------------|
------------------||*-----------------0----|-----------------0----|----------------------|
------------------||*------------3---------|------------5---------|------------6---------|
------------------||--------3--------------|-------5--------------|-------6--------------|
------------------||---3-------------------|--5-------------------|--6--------------3----|


                      2x                                                                     
----------------------||----------------------|----------------------|----------------------|
----------------------||----------------------|----------------------|----------------------|
------------0--------*||-----------------0----|-----------------0----|----------------------|
-------3-------------*||------------3---------|------------5---------|------------6---------|
--3-------------------||-------3--------------|-------5--------------|-------6--------------|
----------------------||--3-------------------|--5-------------------|--6--------------3----|


                                                                                          
------------------||-----------------------|----------------------|----------------------|
------------------||-----------------------|----------------------|----------------------|
------------------||*--0----0----0----0----|--0----0----0----0----|--0----0----0----0----|
------------------||*--3----3----3----3----|--5----5----5----5----|--6----6----6----3----|
------------------||---3----3----3----3----|--5----5----5----5----|--6----6----6----3----|
------------------||---3----3----3----3----|--5----5----5----5----|--6----6----6----3----|


                       2x                                              
-----------------------||----------------------|----------------------|
-----------------------||----------------------|----------------------|
--0----0----0----0----*||--0----0----0----0----|--0----0----0----0----|
--3----3----3----3----*||--3----3----3----3----|--5----5----5----5----|
--3----3----3----3-----||--3----3----3----3----|--5----5----5----5----|
--3----3----3----3-----||--3----3----3----3----|--5----5----5----5----|


                                                                                
----------------------|------------------|------------------|------------------|
----------------------|------------------|------------------|------------------|
--0----0----0----0----|------------------|------------------|------------------|
--6----6----6----3----|------------------|------------------|------------------|
--6----6----6----3----|------------------|------------------|------------------|
--6----6----6----3----|------------------|------------------|------------------|


                                                                            
------------------|------------------|------------------|------------------|
------------------|------------------|------------------|------------------|
------------------|------------------|------------------|------------------|
------------------|------------------|------------------|------------------|
------------------|------------------|------------------|------------------|
------------------|------------------|------------------|------------------|


                                                                            
------------------|------------------|------------------|------------------|
------------------|------------------|------------------|------------------|
------------------|------------------|------------------|------------------|
------------------|------------------|------------------|------------------|
------------------|------------------|------------------|------------------|
------------------|------------------|------------------|------------------|


                                                                            
------------------|------------------|------------------|------------------|
------------------|------------------|------------------|------------------|
------------------|------------------|------------------|------------------|
------------------|------------------|------------------|------------------|
------------------|------------------|------------------|------------------|
------------------|------------------|------------------|------------------|


                                                                                  
------------------|------------------|------------------||-----------------------|
------------------|------------------|------------------||-----------------------|
------------------|------------------|------------------||*--0----0----0----0----|
------------------|------------------|------------------||*--3----3----3----3----|
------------------|------------------|------------------||---3----3----3----3----|
------------------|------------------|------------------||---3----3----3----3----|


                                                                     2x
----------------------|----------------------|-----------------------||
----------------------|----------------------|-----------------------||
--0----0----0----0----|--0----0----0----0----|--0----0----0----0----*||
--5----5----5----5----|--6----6----6----3----|--3----3----3----3----*||
--5----5----5----5----|--6----6----6----3----|--3----3----3----3-----||
--5----5----5----5----|--6----6----6----3----|--3----3----3----3-----||


                                                                                        
----------------------|----------------------|----------------------|------------------|
----------------------|----------------------|----------------------|------------------|
--0----0----0----0----|--0----0----0----0----|--0----0----0----0----|------------------|
--3----3----3----3----|--5----5----5----5----|--6----6----6----3----|------------------|
--3----3----3----3----|--5----5----5----5----|--6----6----6----3----|------------------|
--3----3----3----3----|--5----5----5----5----|--6----6----6----3----|------------------|

[ Tab from: http://www.guitartabs.cc/tabs/t/that_dog/angel_tab.html ]
                                                                            
------------------|------------------|------------------|------------------|
------------------|------------------|------------------|------------------|
------------------|------------------|------------------|------------------|
------------------|------------------|------------------|------------------|
------------------|------------------|------------------|------------------|
------------------|------------------|------------------|------------------|


                                                                            
------------------|------------------|------------------|------------------|
------------------|------------------|------------------|------------------|
------------------|------------------|------------------|------------------|
------------------|------------------|------------------|------------------|
------------------|------------------|------------------|------------------|
------------------|------------------|------------------|------------------|


                                                                              
-------------------|------------------|-------------------|------------------|
-------------------|------------------|-------------------|------------------|
-------------------|------------------|-------------------|------------------|
-------------------|------------------|-------------------|------------------|
-------------------|------------------|-------------------|------------------|
--3----------------|------------------|--3----------------|------------------|


                                                                              
-------------------|------------------|-------------------|------------------|
-------------------|------------------|-------------------|------------------|
-------------------|------------------|-------------------|------------------|
-------------------|------------------|-------------------|------------------|
-------------------|------------------|-------------------|------------------|
--3----------------|------------------|--3----------------|------------------|


                                                                                           
----------------------|----------------------|----------------------|---------------------|
----------------------|----------------------|----------------------|---------------------|
-----------------0----|-----------------0----|----------------------|------------0--------|
------------3---------|------------5---------|------------6---------|-------3-------------|
-------3--------------|-------5--------------|-------6--------------|--3------------------|
--3-------------------|--5-------------------|--6--------------3----|---------------------|


                                                                                           
----------------------|----------------------|----------------------|---------------------|
----------------------|----------------------|----------------------|---------------------|
-----------------0----|-----------------0----|----------------------|------------0--------|
------------3---------|------------5---------|------------6---------|-------3-------------|
-------3--------------|-------5--------------|-------6--------------|--3------------------|
--3-------------------|--5-------------------|--6--------------3----|---------------------|


                                                                                           
----------------------|----------------------|----------------------|---------------------|
----------------------|----------------------|----------------------|---------------------|
-----------------0----|-----------------0----|----------------------|------------0--------|
------------3---------|------------5---------|------------6---------|-------3-------------|
-------3--------------|-------5--------------|-------6--------------|--3------------------|
--3-------------------|--5-------------------|--6--------------3----|---------------------|


                                                                                           
----------------------|----------------------|----------------------|---------------------|
----------------------|----------------------|----------------------|---------------------|
-----------------0----|-----------------0----|----------------------|------------0--------|
------------3---------|------------5---------|------------6---------|-------3-------------|
-------3--------------|-------5--------------|-------6--------------|--3------------------|
--3-------------------|--5-------------------|--6--------------3----|---------------------|


                                                                                           
----------------------|----------------------|----------------------|---------------------|
----------------------|----------------------|----------------------|---------------------|
-----------------0----|-----------------0----|----------------------|------------0--------|
------------3---------|------------5---------|------------6---------|-------3-------------|
-------3--------------|-------5--------------|-------6--------------|--3------------------|
--3-------------------|--5-------------------|--6--------------3----|---------------------|


                                                                                           
----------------------|----------------------|----------------------|---------------------|
----------------------|----------------------|----------------------|---------------------|
-----------------0----|-----------------0----|----------------------|------------0--------|
------------3---------|------------5---------|------------6---------|-------3-------------|
-------3--------------|-------5--------------|-------6--------------|--3------------------|
--3-------------------|--5-------------------|--6--------------3----|---------------------|


                                                                                            
----------------------|----------------------|----------------------|----------------------|
----------------------|----------------------|----------------------|----------------------|
-----------------0----|-----------------0----|----------------------|------------0---------|
------------3---------|------------5---------|------------6---------|-------3--------------|
-------3--------------|-------5--------------|-------6--------------|--3-------------------|
--3-------------------|--5-------------------|--6--------------3----|-----------------3----|


                                                                                            
----------------------|----------------------|----------------------|----------------------|
----------------------|----------------------|----------------------|----------------------|
-----------------0----|-----------------0----|----------------------|------------0---------|
------------3---------|------------5---------|------------6---------|-------3--------------|
-------3--------------|-------5--------------|-------6--------------|--3-------------------|
--3-------------------|--5-------------------|--6--------------3----|-----------------3----|


                                                                                        
----------------------|----------------------|---------------------|------------------||
----------------------|----------------------|---------------------|------------------||
-----------------0----|-----------------0----|---------------------|------------------||
------------3---------|------------5---------|------------6--------|------------------||
-------3--------------|-------5--------------|-------6-------------|------------------||
--3-------------------|--5-------------------|--6------------------|------------------||

http://www.stopforthatdog.com
http://thatdog.net
http://www.annawaronker.com

Comments