That Dog - Angel Chords & Tabs

 

Angel Chords & Tabs

That Dog Chords & Tabs

Version: 1 Type: Bass Tab 0 ratings
1 star 2 stars 3 stars 4 stars 5 stars
comments

Angel Bass Tab

that dog - angel

Submitted by: Alex Getts. None of this is my own work, Kudos to those that transcribed this.
I am only responsible for submitting this.

transcribed by: aaron wilson (amiloudenough@hotmail.com)

Bass
Standard Tuning (recorded version has slightly higher pitch)


G||--------------------|--------------------|---------------------|-------------------|
D||--------------------|--------------------|---------------------|-------------------|
A||--------------------|--------------------|---------------------|-------------------|
E||--3--------3--------|--5--------5--------|--6--------1----3----|--------------1----|


                                                                                   
--------------------|--------------------|---------------------|------------------|
--------------------|--------------------|---------------------|------------------|
--------------------|--------------------|---------------------|------------------|
--3--------3--------|--5--------5--------|--6--------1----3----|------------------|


                                                                                      2x
|---------------------|--------------------|---------------------|--------------------||
|*--------------------|--------------------|---------------------|-------------------*||
|*--------------------|--------------------|---------------------|-------------------*||
|---3--------3--------|--5--------5--------|--6--------1----3----|--------------1-----||


                                                                                   
--------------------|--------------------|---------------------|------------------|
--------------------|--------------------|---------------------|------------------|
--------------------|--------------------|---------------------|------------------|
--3--------3--------|--5--------5--------|--6--------1----3----|------------------|


                                                                       
|-----------------------|----------------------|----------------------|
|*----------------------|----------------------|----------------------|
|*----------------------|----------------------|----------------------|
|---3----3----3----3----|--5----5----5----5----|--6----6----1----3----|


                      2x                                              
----------------------||----------------------|----------------------|
---------------------*||----------------------|----------------------|
---------------------*||----------------------|----------------------|
------3----3----1-----||--3----3----3----3----|--5----5----5----5----|


                                                                                 
-----------------------|------------------|------------------|------------------|
-----------------------|------------------|------------------|------------------|
-----------------------|------------------|------------------|------------------|
--6----6--6----1--3----|------------------|------------------|------------------|


                                                                            
------------------|------------------|------------------|------------------|
------------------|------------------|------------------|------------------|
------------------|------------------|------------------|------------------|
------------------|------------------|------------------|------------------|


                                                                            
------------------|------------------|------------------|------------------|
------------------|------------------|------------------|------------------|
------------------|------------------|------------------|------------------|
------------------|------------------|------------------|------------------|


                                                                            
------------------|------------------|------------------|------------------|
------------------|------------------|------------------|------------------|
------------------|------------------|------------------|------------------|
------------------|------------------|------------------|------------------|


                                                                                  
------------------|------------------|------------------||-----------------------|
------------------|------------------|------------------||*----------------------|
------------------|------------------|------------------||*----------------------|
------------------|------------------|------------------||---3----3----3----3----|


                                                                    2x                       
----------------------|----------------------|----------------------||----------------------|
----------------------|----------------------|---------------------*||----------------------|
----------------------|----------------------|---------------------*||----------------------|
--5----5----5----5----|--6----6----1----3----|------3----3----1-----||--3----3----3----3----|

[ Tab from: http://www.guitartabs.cc/tabs/t/that_dog/angel_btab.html ]
                                                                    
----------------------|----------------------|---------------------|
----------------------|----------------------|---------------------|
----------------------|----------------------|---------------------|
--5----5----5----5----|--6----6----1----3----|----------3----1--1--|


                                                                              
-------------------------|-------------------------|-------------------------|
-------------------------|-------------------------|-------------------------|
-------------------------|-------------------------|-------------------------|
--1h-3--3--3--3----1--1--|--1h-3--3--3--3----1--1--|--1h-3--3--3--3----1--1--|


                                                                              
-------------------------|-------------------------|-------------------------|
-------------------------|-------------------------|-------------------------|
-------------------------|-------------------------|-------------------------|
--1h-3--3--3--3----1--1--|--1h-3--3--3--3----1--1--|--1h-3--3--3--3----1--1--|


                                                                              
-------------------------|-------------------------|-------------------------|
-------------------------|-------------------------|-------------------------|
-------------------------|-------------------------|-------------------------|
--1h-3--3--3--3----1--1--|--1h-3--3--3--3----1--1--|--1h-3--3--3--3----1--1--|


                                                                              
-------------------------|-------------------------|-------------------------|
-------------------------|-------------------------|-------------------------|
-------------------------|-------------------------|-------------------------|
--1h-3--3--3--3----1--1--|--1h-3--3--3--3----1--1--|--1h-3--3--3--3----1--1--|


                                                                              
-------------------------|-------------------------|-------------------------|
-------------------------|-------------------------|-------------------------|
-------------------------|-------------------------|-------------------------|
--1h-3--3--3--3----1--1--|--1h-3--3--3--3----1--1--|--1h-3--3--3--3----1--1--|


                                                                              
-------------------------|-------------------------|-------------------------|
-------------------------|-------------------------|-------------------------|
-------------------------|-------------------------|-------------------------|
--1h-3--3--3--3----1--1--|--1h-3--3--3--3----1--1--|--1h-3--3--3--3----1--1--|


                                                                              
-------------------------|-------------------------|-------------------------|
-------------------------|-------------------------|-------------------------|
-------------------------|-------------------------|-------------------------|
--1h-3--3--3--3----1--1--|--1h-3--3--3--3----1--1--|--1h-3--3--3--3----1--1--|


                                                                              
-------------------------|-------------------------|-------------------------|
-------------------------|-------------------------|-------------------------|
-------------------------|-------------------------|-------------------------|
--1h-3--3--3--3----1--1--|--1h-3--3--3--3----1--1--|--1h-3--3--3--3----1--1--|


                                                                                           
----------------------|----------------------|----------------------|---------------------|
----------------------|----------------------|----------------------|---------------------|
----------------------|----------------------|----------------------|---------------------|
--3----3----3----3----|--5----5----5----5----|--6----6----1----3----|------3----3----1----|


                                                                     
---------------------|---------------------|------------------------|
--5--------5----5----|--7--------7----7----|--8----8----10----12----|
---------------------|---------------------|------------------------|
---------------------|---------------------|------------------------|


                                                                                          
------------------------|--------------------|--------------------|----------------------|
------12----12----10----|--9--------9--------|--7--------7--------|----------------------|
------------------------|--------------------|--------------------|--8----8----7----5----|
------------------------|--------------------|--------------------|----------------------|


                                                                                            
---------------------|----------------------|--------------------|-------------------------|
---------------------|-----------------7----|--------------7--7--|--7--8--8----10----12----|
------5----5----7----|--8----10-------------|--------------------|-------------------------|
---------------------|----------------------|--------------------|-------------------------|


                                                                            
------------------|------------------|------------------|------------------|
------------------|------------------|------------------|------------------|
------------------|------------------|------------------|------------------|
------------------|------------------|------------------|------------------|

http://www.stopforthatdog.com
http://thatdog.net
http://www.annawaronker.com



Comments