Texas Joe Hotdog - Gods Nation Chords & Tabs

 

Gods Nation Chords & Tabs

Texas Joe Hotdog Chords & Tabs

Version: 1 Type: Bass Tab 0 ratings
1 star 2 stars 3 stars 4 stars 5 stars
comments

Gods Nation Bass Tab

Song: God's Nation
Artist: Texas Joe Hotdog
Tabbed by: Brian Beasley


Intro

G|-------------------------------|
D|-------------------------------|
A|-------------------------------|
E|----0-0--3-3-3--0-0-0--3-------|


Verse

G|----------------------------------------|
D|----------------------------------------|
A|-----------------------0-0--------------|
E|----0-0--3-3-3--0-0-0-------3-3---------|


Bridge
[ Tab from: http://www.guitartabs.cc/tabs/t/texas_joe_hotdog/gods_nation_btab.html ]
G|-------------------------------------------------|
D|-------------------------------------------------|
A|----------------------------7-7--5-5-5--9-9-7-7-7|
E|----0-0--3-3-3--5-5--7-7-7-----------------------|

G|-----------------------------------------------|
D|-----------------------------------------------|
A|----7-7--5-5-5-3-3--9-9---7--------------------|
E|-----------------------------------------------|


Outro

G|---------------------------------------------------|
D|---------------------------------------------------|
A|----7-7-7-7-7--5-5--9-9-7-7-7-7-7--5-5--3-3-9-9-7--|
E|---------------------------------------------------|






Any questions mail me at tnisguy6@hotmail.com

Comments